  0
SECTION
  2
HEADER
  9
$ACADVER
  1
AC1014
  9
$ACADMAINTVER
 70
     0
  9
$DWGCODEPAGE
  3
ANSI_932
  9
$INSBASE
 10
0.0
 20
0.0
 30
0.0
  9
$EXTMIN
 10
0.0
 20
0.0
 30
0.0
  9
$EXTMAX
 10
841.0
 20
594.0
 30
0.0
  9
$LIMMIN
 10
0.0
 20
0.0
  9
$LIMMAX
 10
841.0
 20
594.0
  9
$ORTHOMODE
 70
     0
  9
$REGENMODE
 70
     1
  9
$FILLMODE
 70
     1
  9
$QTEXTMODE
 70
     0
  9
$MIRRTEXT
 70
     1
  9
$DRAGMODE
 70
     2
  9
$LTSCALE
 40
1.0
  9
$OSMODE
 70
     0
  9
$ATTMODE
 70
     1
  9
$TEXTSIZE
 40
0.2
  9
$TRACEWID
 40
0.05
  9
$TEXTSTYLE
  7
STANDARD
  9
$CLAYER
  8
LAY-6
  9
$CELTYPE
  6
CONTINUOUS
  9
$CECOLOR
 62
   256
  9
$CELTSCALE
 40
1.0
  9
$DELOBJ
 70
     1
  9
$DISPSILH
 70
     0
  9
$DIMSCALE
 40
1.0
  9
$DIMASZ
 40
0.18
  9
$DIMEXO
 40
0.0625
  9
$DIMDLI
 40
0.38
  9
$DIMRND
 40
0.0
  9
$DIMDLE
 40
0.0
  9
$DIMEXE
 40
0.18
  9
$DIMTP
 40
0.0
  9
$DIMTM
 40
0.0
  9
$DIMTXT
 40
0.18
  9
$DIMCEN
 40
0.09
  9
$DIMTSZ
 40
0.0
  9
$DIMTOL
 70
     0
  9
$DIMLIM
 70
     0
  9
$DIMTIH
 70
     1
  9
$DIMTOH
 70
     1
  9
$DIMSE1
 70
     0
  9
$DIMSE2
 70
     0
  9
$DIMTAD
 70
     0
  9
$DIMZIN
 70
     0
  9
$DIMBLK
  1

  9
$DIMASO
 70
     1
  9
$DIMSHO
 70
     1
  9
$DIMPOST
  1

  9
$DIMAPOST
  1

  9
$DIMALT
 70
     0
  9
$DIMALTD
 70
     2
  9
$DIMALTF
 40
25.4
  9
$DIMLFAC
 40
1.0
  9
$DIMTOFL
 70
     0
  9
$DIMTVP
 40
0.0
  9
$DIMTIX
 70
     0
  9
$DIMSOXD
 70
     0
  9
$DIMSAH
 70
     0
  9
$DIMBLK1
  1

  9
$DIMBLK2
  1

  9
$DIMSTYLE
  2
STANDARD
  9
$DIMCLRD
 70
     0
  9
$DIMCLRE
 70
     0
  9
$DIMCLRT
 70
     0
  9
$DIMTFAC
 40
1.0
  9
$DIMGAP
 40
0.09
  9
$DIMJUST
 70
     0
  9
$DIMSD1
 70
     0
  9
$DIMSD2
 70
     0
  9
$DIMTOLJ
 70
     1
  9
$DIMTZIN
 70
     0
  9
$DIMALTZ
 70
     0
  9
$DIMALTTZ
 70
     0
  9
$DIMFIT
 70
     3
  9
$DIMUPT
 70
     0
  9
$DIMUNIT
 70
     2
  9
$DIMDEC
 70
     4
  9
$DIMTDEC
 70
     4
  9
$DIMALTU
 70
     2
  9
$DIMALTTD
 70
     2
  9
$DIMTXSTY
  7
STANDARD
  9
$DIMAUNIT
 70
     0
  9
$LUNITS
 70
     2
  9
$LUPREC
 70
     4
  9
$SKETCHINC
 40
0.1
  9
$FILLETRAD
 40
0.0
  9
$AUNITS
 70
     0
  9
$AUPREC
 70
     0
  9
$MENU
  1
acad
  9
$ELEVATION
 40
0.0
  9
$PELEVATION
 40
0.0
  9
$THICKNESS
 40
0.0
  9
$LIMCHECK
 70
     0
  9
$BLIPMODE
 70
     1
  9
$CHAMFERA
 40
0.0
  9
$CHAMFERB
 40
0.0
  9
$CHAMFERC
 40
0.0
  9
$CHAMFERD
 40
0.0
  9
$SKPOLY
 70
     0
  9
$TDCREATE
 40
2454541.715469664
  9
$TDUPDATE
 40
2454541.715469664
  9
$TDINDWG
 40
0.0000000000
  9
$TDUSRTIMER
 40
0.0000000000
  9
$USRTIMER
 70
     1
  9
$ANGBASE
 50
0.0
  9
$ANGDIR
 70
     0
  9
$PDMODE
 70
     0
  9
$PDSIZE
 40
0.0
  9
$PLINEWID
 40
0.0
  9
$COORDS
 70
     1
  9
$SPLFRAME
 70
     0
  9
$SPLINETYPE
 70
     6
  9
$SPLINESEGS
 70
     8
  9
$ATTDIA
 70
     0
  9
$ATTREQ
 70
     1
  9
$HANDLING
 70
     1
  9
$HANDSEED
  5
8FC
  9
$SURFTAB1
 70
     6
  9
$SURFTAB2
 70
     6
  9
$SURFTYPE
 70
     6
  9
$SURFU
 70
     6
  9
$SURFV
 70
     6
  9
$UCSNAME
  2

  9
$UCSORG
 10
0.0
 20
0.0
 30
0.0
  9
$UCSXDIR
 10
1.0
 20
0.0
 30
0.0
  9
$UCSYDIR
 10
0.0
 20
1.0
 30
0.0
  9
$PUCSNAME
  2

  9
$PUCSORG
 10
0.0
 20
0.0
 30
0.0
  9
$PUCSXDIR
 10
1.0
 20
0.0
 30
0.0
  9
$PUCSYDIR
 10
0.0
 20
1.0
 30
0.0
  9
$USERI1
 70
     0
  9
$USERI2
 70
     0
  9
$USERI3
 70
     0
  9
$USERI4
 70
     0
  9
$USERI5
 70
     0
  9
$USERR1
 40
0.0
  9
$USERR2
 40
0.0
  9
$USERR3
 40
0.0
  9
$USERR4
 40
0.0
  9
$USERR5
 40
0.0
  9
$WORLDVIEW
 70
     1
  9
$SHADEDGE
 70
     3
  9
$SHADEDIF
 70
    70
  9
$TILEMODE
 70
     1
  9
$MAXACTVP
 70
    16
  9
$PINSBASE
 10
0.0
 20
0.0
 30
0.0
  9
$PLIMCHECK
 70
     0
  9
$PEXTMIN
 10
1.000000E+20
 20
1.000000E+20
 30
1.000000E+20
  9
$PEXTMAX
 10
-1.000000E+20
 20
-1.000000E+20
 30
-1.000000E+20
  9
$PLIMMIN
 10
0.0
 20
0.0
  9
$PLIMMAX
 10
12.0
 20
9.0
  9
$UNITMODE
 70
     0
  9
$VISRETAIN
 70
     0
  9
$PLINEGEN
 70
     1
  9
$PSLTSCALE
 70
     0
  9
$TREEDEPTH
 70
  3020
  9
$PICKSTYLE
 70
     1
  9
$CMLSTYLE
  2
Standard
  9
$CMLJUST
 70
     0
  9
$CMLSCALE
 40
1.0
  9
$PROXYGRAPHICS
 70
     0
  9
$MEASUREMENT
 70
     0
  0
ENDSEC
  0
SECTION
  2
CLASSES
  0
CLASS
  1
LWPOLYLINE
  2
AcDbPolyline
  3
"AutoCAD"
 90
        0
280
     0
281
     1
  0
CLASS
  1
IMAGE
  2
AcDbRasterImage
  3
ISM
 90
      127
280
     0
281
     1
  0
CLASS
  1
OLE2FRAME
  2
AcDbOle2Frame
  3
""
 90
        0
280
     0
281
     1
  0
CLASS
  1
HATCH
  2
AcDbHatch
  3
"ACAD_SEDONA"
 90
        0
280
     0
281
     1
  0
CLASS
  1
DICTIONARYVAR
  2
AcDbDictionaryVar
  3
"AutoCAD"
 90
        0
280
     0
281
     0
  0
CLASS
  1
RASTERVARIABLES
  2
AcDbRasterVariables
  3
ISM
 90
        0
280
     0
281
     0
  0
CLASS
  1
IMAGEDEF
  2
AcDbRasterImageDef
  3
ISM
 90
        0
280
     0
281
     0
  0
CLASS
  1
IMAGEDEF_REACTOR
  2
AcDbRasterImageDefReactor
  3
ISM
 90
        1
280
     0
281
     0
  0
CLASS
  1
IDBUFFER
  2
AcDbIdBuffer
  3
"Acad"
 90
        0
280
     0
281
     0
  0
CLASS
  1
SPATIAL_FILTER
  2
AcDbSpatialFilter
  3
"Acad"
 90
        0
280
     0
281
     0
  0
CLASS
  1
XRECORD
  2
AcDbXrecord
  3
"<Built In>"
 90
        0
280
     0
281
     0
  0
CLASS
  1
SORTENTSTABLE
  2
AcDbSortentsTable
  3
"AutoCAD"
 90
        0
280
     0
281
     0
  0
CLASS
  1
LAYER_INDEX
  2
AcDbLayerIndex
  3
"Acad"
 90
        0
280
     0
281
     0
  0
CLASS
  1
SPATIAL_INDEX
  2
AcDbSpatialIndex
  3
"Acad"
 90
        0
280
     0
281
     0
  0
CLASS
  1
OBJECT_PTR
  2
CAseDLPNTableRecord
  3
"ASE-LPNTableRecord"
 90
        1
280
     0
281
     0
  0
CLASS
  1
LAYOUT
  2
AcDbLayout
  3
"AutoCAD 2000"
 90
        0
280
     0
281
     0
  0
CLASS
  1
PLOTSETTINGS
  2
AcDbPlotSettings
  3
"AutoCAD 2000"
 90
        0
280
     0
281
     0
  0
CLASS
  1
ACDBDICTIONARYWDFLT
  2
AcDbDictionaryWithDefault
  3
"AutoCAD 2000"
 90
        0
280
     0
281
     0
  0
CLASS
  1
ACDBPLACEHOLDER
  2
AcDbPlaceHolder
  3
"AutoCAD 2000"
 90
        0
280
     0
281
     0
  0
CLASS
  1
VBA_PROJECT
  2
AcDbVbaProject
  3
"acadvba"
 90
        0
280
     0
281
     0
  0
CLASS
  1
WIPEOUT
  2
AcDbWipeout
  3
WipeOut|AutoCAD Express Tool|expresstools@autodesk.com
 90
      127
280
     0
281
     1
  0
CLASS
  1
WIPEOUTVARIABLES
  2
AcDbWipeoutVariables
  3
WipeOut|AutoCAD Express Tool|expresstools@autodesk.com
 90
        0
280
     0
281
     0
  0
CLASS
  1
RTEXT
  2
RText
  3
RText|AutoCAD Express Tool|expresstools@autodesk.com
 90
        0
280
     0
281
     1
  0
CLASS
  1
ARCALIGNEDTEXT
  2
AcDbArcAlignedText
  3
ATEXT|AutoCAD Express Tool|expresstools@autodesk.com
 90
        0
280
     0
281
     1
  0
ENDSEC
  0
SECTION
  2
TABLES
  0
TABLE
  2
VPORT
  5
7
100
AcDbSymbolTable
 70
     1
  0
VPORT
  5
15
100
AcDbSymbolTableRecord
100
AcDbViewportTableRecord
  2
*ACTIVE
 70
     0
 10
0.0
 20
0.0
 11
1.0
 21
1.0
 12
420.5
 22
297.0
 13
0.0
 23
0.0
 14
1.0
 24
1.0
 15
0.0
 25
0.0
 16
0.0
 26
0.0
 36
1.0
 17
0.0
 27
0.0
 37
0.0
 40
594.0
 41
1.722533
 42
50.0
 43
0.0
 44
0.0
 50
0.0
 51
0.0
 71
     0
 72
   100
 73
     1
 74
     1
 75
     0
 76
     0
 77
     0
 78
     0
  0
ENDTAB
  0
TABLE
  2
LTYPE
  5
4
100
AcDbSymbolTable
 70
     9
  0
LTYPE
  5
11
100
AcDbSymbolTableRecord
100
AcDbLinetypeTableRecord
  2
BYBLOCK
 70
    64
  3

 72
    65
 73
     0
 40
0.0
  0
LTYPE
  5
12
100
AcDbSymbolTableRecord
100
AcDbLinetypeTableRecord
  2
BYLAYER
 70
    64
  3

 72
    65
 73
     0
 40
0.0
  0
LTYPE
  5
13
100
AcDbSymbolTableRecord
100
AcDbLinetypeTableRecord
  2
CONTINUOUS
 70
    64
  3
実線
 72
    65
 73
     0
 40
0.0
  0
LTYPE
  5
1D
100
AcDbSymbolTableRecord
100
AcDbLinetypeTableRecord
  2
DASHED
 70
    64
  3
Dashed __ __ __ __ __ __ __ __ __ __ __ __ __ _
 72
    65
 73
     2
 40
19.05
 49
12.7
 74
     0
 49
-6.35
 74
     0
  0
LTYPE
  5
1E
100
AcDbSymbolTableRecord
100
AcDbLinetypeTableRecord
  2
DASHED2
 70
    64
  3
Dashed (.5x) _ _ _ _ _ _ _ _ _ _ _ _ _ _ _ _ _ 
 72
    65
 73
     2
 40
9.525
 49
6.35
 74
     0
 49
-3.175
 74
     0
  0
LTYPE
  5
1F
100
AcDbSymbolTableRecord
100
AcDbLinetypeTableRecord
  2
DASHDOT
 70
    64
  3
Dash dot __ . __ . __ . __ . __ . __ . __ . __
 72
    65
 73
     4
 40
25.4
 49
12.7
 74
     0
 49
-6.35
 74
     0
 49
0.0
 74
     0
 49
-6.35
 74
     0
  0
LTYPE
  5
20
100
AcDbSymbolTableRecord
100
AcDbLinetypeTableRecord
  2
DIVIDE
 70
    64
  3
Divide ____ . . ____ . . ____ . . ____ . . ____
 72
    65
 73
     6
 40
31.75
 49
12.7
 74
     0
 49
-6.35
 74
     0
 49
0.0
 74
     0
 49
-6.35
 74
     0
 49
0.0
 74
     0
 49
-6.35
 74
     0
  0
LTYPE
  5
21
100
AcDbSymbolTableRecord
100
AcDbLinetypeTableRecord
  2
ACAD_ISO06W100
 70
    64
  3
ISO long-dash triple-dot ____ ... ____ ... ____
 72
    65
 73
     8
 40
36.0
 49
24.0
 74
     0
 49
-3.0
 74
     0
 49
0.0
 74
     0
 49
-3.0
 74
     0
 49
0.0
 74
     0
 49
-3.0
 74
     0
 49
0.0
 74
     0
 49
-3.0
 74
     0
  0
LTYPE
  5
22
100
AcDbSymbolTableRecord
100
AcDbLinetypeTableRecord
  2
ACAD_ISO15W100
 70
    64
  3
ISO double-dash triple-dot __ __ . . . __ __ . .
 72
    65
 73
    10
 40
39.0
 49
12.0
 74
     0
 49
-3.0
 74
     0
 49
12.0
 74
     0
 49
-3.0
 74
     0
 49
0.0
 74
     0
 49
-3.0
 74
     0
 49
0.0
 74
     0
 49
-3.0
 74
     0
 49
0.0
 74
     0
 49
-3.0
 74
     0
  0
ENDTAB
  0
TABLE
  2
LAYER
  5
2
100
AcDbSymbolTable
 70
    14
  0
LAYER
  5
14
100
AcDbSymbolTableRecord
100
AcDbLayerTableRecord
  2
0
 70
     0
 62
     7
  6
CONTINUOUS
  0
LAYER
  5
25
100
AcDbSymbolTableRecord
100
AcDbLayerTableRecord
  2
LAY-1
 70
    64
 62
     3
  6
CONTINUOUS
  0
LAYER
  5
26
100
AcDbSymbolTableRecord
100
AcDbLayerTableRecord
  2
LAY-2
 70
    64
 62
     3
  6
CONTINUOUS
  0
LAYER
  5
27
100
AcDbSymbolTableRecord
100
AcDbLayerTableRecord
  2
LAY-3
 70
    64
 62
     3
  6
CONTINUOUS
  0
LAYER
  5
28
100
AcDbSymbolTableRecord
100
AcDbLayerTableRecord
  2
LAY-4
 70
    64
 62
     3
  6
CONTINUOUS
  0
LAYER
  5
29
100
AcDbSymbolTableRecord
100
AcDbLayerTableRecord
  2
LAY-5
 70
    64
 62
     1
  6
DASHDOT
  0
LAYER
  5
2A
100
AcDbSymbolTableRecord
100
AcDbLayerTableRecord
  2
LAY-6
 70
    64
 62
     1
  6
CONTINUOUS
  0
LAYER
  5
2B
100
AcDbSymbolTableRecord
100
AcDbLayerTableRecord
  2
LAY-7
 70
    64
 62
     3
  6
CONTINUOUS
  0
LAYER
  5
2C
100
AcDbSymbolTableRecord
100
AcDbLayerTableRecord
  2
LAY-8
 70
    64
 62
     2
  6
CONTINUOUS
  0
LAYER
  5
2D
100
AcDbSymbolTableRecord
100
AcDbLayerTableRecord
  2
LAY-9
 70
    64
 62
     1
  6
CONTINUOUS
  0
LAYER
  5
2E
100
AcDbSymbolTableRecord
100
AcDbLayerTableRecord
  2
LAY-10
 70
    64
 62
     5
  6
CONTINUOUS
  0
LAYER
  5
2F
100
AcDbSymbolTableRecord
100
AcDbLayerTableRecord
  2
LAY-11
 70
    64
 62
     1
  6
CONTINUOUS
  0
LAYER
  5
30
100
AcDbSymbolTableRecord
100
AcDbLayerTableRecord
  2
LAY-12
 70
    64
 62
     3
  6
CONTINUOUS
  0
LAYER
  5
31
100
AcDbSymbolTableRecord
100
AcDbLayerTableRecord
  2
LAY-13
 70
    64
 62
     3
  6
CONTINUOUS
  0
ENDTAB
  0
TABLE
  2
STYLE
  5
3
100
AcDbSymbolTable
 70
     3
  0
STYLE
  5
17
100
AcDbSymbolTableRecord
100
AcDbTextStyleTableRecord
  2
STANDARD
 70
     0
 40
0.0
 41
1.0
 50
0.0
 71
     0
 42
0.0
  3
monotxt
  4
extfont
  0
STYLE
  5
23
100
AcDbSymbolTableRecord
100
AcDbTextStyleTableRecord
  2
EXCADSTD
 70
    64
 40
0.0
 41
1.0
 50
0.0
 71
     0
 42
0.2
  3
monotxt
  4
extfont
  0
STYLE
  5
24
100
AcDbSymbolTableRecord
100
AcDbTextStyleTableRecord
  2
EXCADVERT
 70
    68
 40
0.0
 41
1.0
 50
0.0
 71
     0
 42
0.286885
  3
monotxt
  4
extfont
  0
ENDTAB
  0
TABLE
  2
VIEW
  5
5
100
AcDbSymbolTable
 70
     0
  0
ENDTAB
  0
TABLE
  2
UCS
  5
6
100
AcDbSymbolTable
 70
     0
  0
ENDTAB
  0
TABLE
  2
APPID
  5
8
100
AcDbSymbolTable
 70
     1
  0
APPID
  5
16
100
AcDbSymbolTableRecord
100
AcDbRegAppTableRecord
  2
ACAD
 70
     0
  0
ENDTAB
  0
TABLE
  2
DIMSTYLE
  5
9
100
AcDbSymbolTable
 70
     1
  0
DIMSTYLE
105
18
100
AcDbSymbolTableRecord
100
AcDbDimStyleTableRecord
  2
STANDARD
 70
     0
  3

  4

  5

  6

  7

 40
1.0
 41
0.18
 42
0.0625
 43
0.38
 44
0.18
 45
0.0
 46
0.0
 47
0.0
 48
0.0
 71
     0
 72
     0
 73
     1
 74
     1
 75
     0
 76
     0
 77
     0
 78
     0
140
0.18
141
0.09
142
0.0
143
25.4
144
1.0
145
0.0
146
1.0
147
0.09
170
     0
171
     2
172
     1
173
     0
174
     0
175
     0
176
     0
177
     0
178
     0
270
     2
271
     4
272
     4
273
     2
274
     2
275
     0
280
     0
281
     0
282
     0
283
     1
284
     0
285
     0
286
     0
287
     3
288
     0
340
17
  0
ENDTAB
  0
TABLE
  2
BLOCK_RECORD
  5
1
100
AcDbSymbolTable
 70
    17
  0
BLOCK_RECORD
  5
A
100
AcDbSymbolTableRecord
100
AcDbBlockTableRecord
  2
*MODEL_SPACE
  0
BLOCK_RECORD
  5
B
100
AcDbSymbolTableRecord
100
AcDbBlockTableRecord
  2
*PAPER_SPACE
  0
BLOCK_RECORD
  5
32
100
AcDbSymbolTableRecord
100
AcDbBlockTableRecord
  2
_EX_NORM
  0
BLOCK_RECORD
  5
33
100
AcDbSymbolTableRecord
100
AcDbBlockTableRecord
  2
_EX_BNORM
  0
BLOCK_RECORD
  5
34
100
AcDbSymbolTableRecord
100
AcDbBlockTableRecord
  2
_EX_BCIR
  0
BLOCK_RECORD
  5
35
100
AcDbSymbolTableRecord
100
AcDbBlockTableRecord
  2
_EX_RCIVIL
  0
BLOCK_RECORD
  5
36
100
AcDbSymbolTableRecord
100
AcDbBlockTableRecord
  2
_EX_SLANT
  0
BLOCK_RECORD
  5
37
100
AcDbSymbolTableRecord
100
AcDbBlockTableRecord
  2
_EX_NONE
  0
BLOCK_RECORD
  5
38
100
AcDbSymbolTableRecord
100
AcDbBlockTableRecord
  2
_EX_CIVIL
  0
BLOCK_RECORD
  5
39
100
AcDbSymbolTableRecord
100
AcDbBlockTableRecord
  2
_EX_WCIR
  0
BLOCK_RECORD
  5
3A
100
AcDbSymbolTableRecord
100
AcDbBlockTableRecord
  2
_EX_WCIR2
  0
BLOCK_RECORD
  5
3B
100
AcDbSymbolTableRecord
100
AcDbBlockTableRecord
  2
_EX_WNORM
  0
BLOCK_RECORD
  5
3C
100
AcDbSymbolTableRecord
100
AcDbBlockTableRecord
  2
_EX_NNORM
  0
BLOCK_RECORD
  5
3D
100
AcDbSymbolTableRecord
100
AcDbBlockTableRecord
  2
_EX_BBOX
  0
BLOCK_RECORD
  5
3E
100
AcDbSymbolTableRecord
100
AcDbBlockTableRecord
  2
_EX_WBOX
  0
BLOCK_RECORD
  5
3F
100
AcDbSymbolTableRecord
100
AcDbBlockTableRecord
  2
_EX_INTEGRAL
  0
BLOCK_RECORD
  5
40
100
AcDbSymbolTableRecord
100
AcDbBlockTableRecord
  2
SYM-1
  0
BLOCK_RECORD
  5
41
100
AcDbSymbolTableRecord
100
AcDbBlockTableRecord
  2
SYM-2
  0
BLOCK_RECORD
  5
42
100
AcDbSymbolTableRecord
100
AcDbBlockTableRecord
  2
SYM-3
  0
ENDTAB
  0
ENDSEC
  0
SECTION
  2
BLOCKS
  0
BLOCK
  5
D
100
AcDbEntity
  8
0
100
AcDbBlockBegin
  2
*MODEL_SPACE
 70
     0
 10
0.0
 20
0.0
 30
0.0
  3
*MODEL_SPACE
  1

  0
ENDBLK
  5
E
100
AcDbEntity
  8
0
100
AcDbBlockEnd
  0
BLOCK
  5
F
100
AcDbEntity
 67
     1
  8
0
100
AcDbBlockBegin
  2
*PAPER_SPACE
 70
     0
 10
0.0
 20
0.0
 30
0.0
  3
*PAPER_SPACE
  1

  0
ENDBLK
  5
10
100
AcDbEntity
 67
     1
  8
0
100
AcDbBlockEnd
  0
BLOCK
  5
43
100
AcDbEntity
  8
0
100
AcDbBlockBegin
  2
_EX_NORM
 70
     0
 10
0.0
 20
0.0
 30
0.0
  3
_EX_NORM
  1

  0
LINE
  5
44
100
AcDbEntity
  8
0
  6
CONTINUOUS
 62
     0
100
AcDbLine
 10
0.0
 20
0.0
 30
0.0
 11
-1.0
 21
0.0
 31
0.0
  0
LINE
  5
45
100
AcDbEntity
  8
0
  6
CONTINUOUS
 62
     0
100
AcDbLine
 10
0.0
 20
0.0
 30
0.0
 11
-1.0
 21
0.166667
 31
0.0
  0
LINE
  5
46
100
AcDbEntity
  8
0
  6
CONTINUOUS
 62
     0
100
AcDbLine
 10
0.0
 20
0.0
 30
0.0
 11
-1.0
 21
-0.166667
 31
0.0
  0
ENDBLK
  5
47
100
AcDbEntity
  8
0
100
AcDbBlockEnd
  0
BLOCK
  5
48
100
AcDbEntity
  8
0
100
AcDbBlockBegin
  2
_EX_BNORM
 70
     0
 10
0.0
 20
0.0
 30
0.0
  3
_EX_BNORM
  1

  0
LINE
  5
49
100
AcDbEntity
  8
0
  6
CONTINUOUS
 62
     0
100
AcDbLine
 10
0.0
 20
0.0
 30
0.0
 11
-1.0
 21
0.0
 31
0.0
  0
LINE
  5
4A
100
AcDbEntity
  8
0
  6
CONTINUOUS
 62
     0
100
AcDbLine
 10
0.0
 20
0.0
 30
0.0
 11
-1.0
 21
0.166667
 31
0.0
  0
LINE
  5
4B
100
AcDbEntity
  8
0
  6
CONTINUOUS
 62
     0
100
AcDbLine
 10
0.0
 20
0.0
 30
0.0
 11
-1.0
 21
-0.166667
 31
0.0
  0
LINE
  5
4C
100
AcDbEntity
  8
0
  6
CONTINUOUS
 62
     0
100
AcDbLine
 10
0.0
 20
0.0
 30
0.0
 11
-1.0
 21
0.083333
 31
0.0
  0
LINE
  5
4D
100
AcDbEntity
  8
0
  6
CONTINUOUS
 62
     0
100
AcDbLine
 10
0.0
 20
0.0
 30
0.0
 11
-1.0
 21
-0.083333
 31
0.0
  0
LINE
  5
4E
100
AcDbEntity
  8
0
  6
CONTINUOUS
 62
     0
100
AcDbLine
 10
-1.0
 20
0.166667
 30
0.0
 11
-1.0
 21
-0.166667
 31
0.0
  0
ENDBLK
  5
4F
100
AcDbEntity
  8
0
100
AcDbBlockEnd
  0
BLOCK
  5
50
100
AcDbEntity
  8
0
100
AcDbBlockBegin
  2
_EX_BCIR
 70
     0
 10
0.0
 20
0.0
 30
0.0
  3
_EX_BCIR
  1

  0
LINE
  5
51
100
AcDbEntity
  8
0
  6
CONTINUOUS
 62
     0
100
AcDbLine
 10
0.0
 20
0.0
 30
0.0
 11
-1.0
 21
0.0
 31
0.0
  0
CIRCLE
  5
52
100
AcDbEntity
  8
0
  6
CONTINUOUS
 62
     0
100
AcDbCircle
 10
0.0
 20
0.0
 30
0.0
 40
0.5
  0
CIRCLE
  5
53
100
AcDbEntity
  8
0
  6
CONTINUOUS
 62
     0
100
AcDbCircle
 10
0.0
 20
0.0
 30
0.0
 40
0.25
  0
ENDBLK
  5
54
100
AcDbEntity
  8
0
100
AcDbBlockEnd
  0
BLOCK
  5
55
100
AcDbEntity
  8
0
100
AcDbBlockBegin
  2
_EX_RCIVIL
 70
     0
 10
0.0
 20
0.0
 30
0.0
  3
_EX_RCIVIL
  1

  0
LINE
  5
56
100
AcDbEntity
  8
0
  6
CONTINUOUS
 62
     0
100
AcDbLine
 10
0.0
 20
0.0
 30
0.0
 11
-1.0
 21
0.0
 31
0.0
  0
LINE
  5
57
100
AcDbEntity
  8
0
  6
CONTINUOUS
 62
     0
100
AcDbLine
 10
-1.0
 20
-0.25
 30
0.0
 11
0.0
 21
-0.25
 31
0.0
  0
LINE
  5
58
100
AcDbEntity
  8
0
  6
CONTINUOUS
 62
     0
100
AcDbLine
 10
-1.0
 20
-0.125
 30
0.0
 11
0.0
 21
-0.125
 31
0.0
  0
ENDBLK
  5
59
100
AcDbEntity
  8
0
100
AcDbBlockEnd
  0
BLOCK
  5
5A
100
AcDbEntity
  8
0
100
AcDbBlockBegin
  2
_EX_SLANT
 70
     0
 10
0.0
 20
0.0
 30
0.0
  3
_EX_SLANT
  1

  0
LINE
  5
5B
100
AcDbEntity
  8
0
  6
CONTINUOUS
 62
     0
100
AcDbLine
 10
0.0
 20
0.0
 30
0.0
 11
-1.0
 21
0.0
 31
0.0
  0
LINE
  5
5C
100
AcDbEntity
  8
0
  6
CONTINUOUS
 62
     0
100
AcDbLine
 10
0.707107
 20
0.707107
 30
0.0
 11
-0.707107
 21
-0.707107
 31
0.0
  0
ENDBLK
  5
5D
100
AcDbEntity
  8
0
100
AcDbBlockEnd
  0
BLOCK
  5
5E
100
AcDbEntity
  8
0
100
AcDbBlockBegin
  2
_EX_NONE
 70
     0
 10
0.0
 20
0.0
 30
0.0
  3
_EX_NONE
  1

  0
LINE
  5
5F
100
AcDbEntity
  8
0
  6
CONTINUOUS
 62
     0
100
AcDbLine
 10
0.0
 20
0.0
 30
0.0
 11
-1.0
 21
0.0
 31
0.0
  0
ENDBLK
  5
60
100
AcDbEntity
  8
0
100
AcDbBlockEnd
  0
BLOCK
  5
61
100
AcDbEntity
  8
0
100
AcDbBlockBegin
  2
_EX_CIVIL
 70
     0
 10
0.0
 20
0.0
 30
0.0
  3
_EX_CIVIL
  1

  0
LINE
  5
62
100
AcDbEntity
  8
0
  6
CONTINUOUS
 62
     0
100
AcDbLine
 10
0.0
 20
0.0
 30
0.0
 11
-1.0
 21
0.0
 31
0.0
  0
LINE
  5
63
100
AcDbEntity
  8
0
  6
CONTINUOUS
 62
     0
100
AcDbLine
 10
-1.0
 20
0.25
 30
0.0
 11
0.0
 21
0.25
 31
0.0
  0
LINE
  5
64
100
AcDbEntity
  8
0
  6
CONTINUOUS
 62
     0
100
AcDbLine
 10
-1.0
 20
0.125
 30
0.0
 11
0.0
 21
0.125
 31
0.0
  0
ENDBLK
  5
65
100
AcDbEntity
  8
0
100
AcDbBlockEnd
  0
BLOCK
  5
66
100
AcDbEntity
  8
0
100
AcDbBlockBegin
  2
_EX_WCIR
 70
     0
 10
0.0
 20
0.0
 30
0.0
  3
_EX_WCIR
  1

  0
LINE
  5
67
100
AcDbEntity
  8
0
  6
CONTINUOUS
 62
     0
100
AcDbLine
 10
0.0
 20
0.0
 30
0.0
 11
-1.0
 21
0.0
 31
0.0
  0
CIRCLE
  5
68
100
AcDbEntity
  8
0
  6
CONTINUOUS
 62
     0
100
AcDbCircle
 10
0.0
 20
0.0
 30
0.0
 40
0.5
  0
ENDBLK
  5
69
100
AcDbEntity
  8
0
100
AcDbBlockEnd
  0
BLOCK
  5
6A
100
AcDbEntity
  8
0
100
AcDbBlockBegin
  2
_EX_WCIR2
 70
     0
 10
0.0
 20
0.0
 30
0.0
  3
_EX_WCIR2
  1

  0
LINE
  5
6B
100
AcDbEntity
  8
0
  6
CONTINUOUS
 62
     0
100
AcDbLine
 10
-0.5
 20
0.0
 30
0.0
 11
-1.0
 21
0.0
 31
0.0
  0
CIRCLE
  5
6C
100
AcDbEntity
  8
0
  6
CONTINUOUS
 62
     0
100
AcDbCircle
 10
0.0
 20
0.0
 30
0.0
 40
0.5
  0
ENDBLK
  5
6D
100
AcDbEntity
  8
0
100
AcDbBlockEnd
  0
BLOCK
  5
6E
100
AcDbEntity
  8
0
100
AcDbBlockBegin
  2
_EX_WNORM
 70
     0
 10
0.0
 20
0.0
 30
0.0
  3
_EX_WNORM
  1

  0
LINE
  5
6F
100
AcDbEntity
  8
0
  6
CONTINUOUS
 62
     0
100
AcDbLine
 10
-1.0
 20
0.0
 30
0.0
 11
-1.0
 21
0.0
 31
0.0
  0
LINE
  5
70
100
AcDbEntity
  8
0
  6
CONTINUOUS
 62
     0
100
AcDbLine
 10
0.0
 20
0.0
 30
0.0
 11
-1.0
 21
0.166667
 31
0.0
  0
LINE
  5
71
100
AcDbEntity
  8
0
  6
CONTINUOUS
 62
     0
100
AcDbLine
 10
0.0
 20
0.0
 30
0.0
 11
-1.0
 21
-0.166667
 31
0.0
  0
LINE
  5
72
100
AcDbEntity
  8
0
  6
CONTINUOUS
 62
     0
100
AcDbLine
 10
-1.0
 20
0.166667
 30
0.0
 11
-1.0
 21
-0.166667
 31
0.0
  0
ENDBLK
  5
73
100
AcDbEntity
  8
0
100
AcDbBlockEnd
  0
BLOCK
  5
74
100
AcDbEntity
  8
0
100
AcDbBlockBegin
  2
_EX_NNORM
 70
     0
 10
0.0
 20
0.0
 30
0.0
  3
_EX_NNORM
  1

  0
LINE
  5
75
100
AcDbEntity
  8
0
  6
CONTINUOUS
 62
     0
100
AcDbLine
 10
0.0
 20
0.0
 30
0.0
 11
-1.0
 21
0.0
 31
0.0
  0
LINE
  5
76
100
AcDbEntity
  8
0
  6
CONTINUOUS
 62
     0
100
AcDbLine
 10
0.0
 20
0.0
 30
0.0
 11
-1.0
 21
0.166667
 31
0.0
  0
LINE
  5
77
100
AcDbEntity
  8
0
  6
CONTINUOUS
 62
     0
100
AcDbLine
 10
0.0
 20
0.0
 30
0.0
 11
-1.0
 21
-0.166667
 31
0.0
  0
LINE
  5
78
100
AcDbEntity
  8
0
  6
CONTINUOUS
 62
     0
100
AcDbLine
 10
-1.0
 20
0.166667
 30
0.0
 11
-1.0
 21
-0.166667
 31
0.0
  0
ENDBLK
  5
79
100
AcDbEntity
  8
0
100
AcDbBlockEnd
  0
BLOCK
  5
7A
100
AcDbEntity
  8
0
100
AcDbBlockBegin
  2
_EX_BBOX
 70
     0
 10
0.0
 20
0.0
 30
0.0
  3
_EX_BBOX
  1

  0
LINE
  5
7B
100
AcDbEntity
  8
0
  6
CONTINUOUS
 62
     0
100
AcDbLine
 10
0.0
 20
0.0
 30
0.0
 11
-1.0
 21
0.0
 31
0.0
  0
LINE
  5
7C
100
AcDbEntity
  8
0
  6
CONTINUOUS
 62
     0
100
AcDbLine
 10
-0.5
 20
0.5
 30
0.0
 11
0.5
 21
0.5
 31
0.0
  0
LINE
  5
7D
100
AcDbEntity
  8
0
  6
CONTINUOUS
 62
     0
100
AcDbLine
 10
0.5
 20
0.5
 30
0.0
 11
0.5
 21
-0.5
 31
0.0
  0
LINE
  5
7E
100
AcDbEntity
  8
0
  6
CONTINUOUS
 62
     0
100
AcDbLine
 10
0.5
 20
-0.5
 30
0.0
 11
-0.5
 21
-0.5
 31
0.0
  0
LINE
  5
7F
100
AcDbEntity
  8
0
  6
CONTINUOUS
 62
     0
100
AcDbLine
 10
-0.5
 20
-0.5
 30
0.0
 11
-0.5
 21
0.5
 31
0.0
  0
LINE
  5
80
100
AcDbEntity
  8
0
  6
CONTINUOUS
 62
     0
100
AcDbLine
 10
-0.25
 20
0.25
 30
0.0
 11
0.25
 21
0.25
 31
0.0
  0
LINE
  5
81
100
AcDbEntity
  8
0
  6
CONTINUOUS
 62
     0
100
AcDbLine
 10
0.25
 20
0.25
 30
0.0
 11
0.25
 21
-0.25
 31
0.0
  0
LINE
  5
82
100
AcDbEntity
  8
0
  6
CONTINUOUS
 62
     0
100
AcDbLine
 10
0.25
 20
-0.25
 30
0.0
 11
-0.25
 21
-0.25
 31
0.0
  0
LINE
  5
83
100
AcDbEntity
  8
0
  6
CONTINUOUS
 62
     0
100
AcDbLine
 10
-0.25
 20
-0.25
 30
0.0
 11
-0.25
 21
0.25
 31
0.0
  0
ENDBLK
  5
84
100
AcDbEntity
  8
0
100
AcDbBlockEnd
  0
BLOCK
  5
85
100
AcDbEntity
  8
0
100
AcDbBlockBegin
  2
_EX_WBOX
 70
     0
 10
0.0
 20
0.0
 30
0.0
  3
_EX_WBOX
  1

  0
LINE
  5
86
100
AcDbEntity
  8
0
  6
CONTINUOUS
 62
     0
100
AcDbLine
 10
-0.5
 20
0.0
 30
0.0
 11
-1.0
 21
0.0
 31
0.0
  0
LINE
  5
87
100
AcDbEntity
  8
0
  6
CONTINUOUS
 62
     0
100
AcDbLine
 10
-0.5
 20
0.5
 30
0.0
 11
0.5
 21
0.5
 31
0.0
  0
LINE
  5
88
100
AcDbEntity
  8
0
  6
CONTINUOUS
 62
     0
100
AcDbLine
 10
0.5
 20
0.5
 30
0.0
 11
0.5
 21
-0.5
 31
0.0
  0
LINE
  5
89
100
AcDbEntity
  8
0
  6
CONTINUOUS
 62
     0
100
AcDbLine
 10
0.5
 20
-0.5
 30
0.0
 11
-0.5
 21
-0.5
 31
0.0
  0
LINE
  5
8A
100
AcDbEntity
  8
0
  6
CONTINUOUS
 62
     0
100
AcDbLine
 10
-0.5
 20
-0.5
 30
0.0
 11
-0.5
 21
0.5
 31
0.0
  0
ENDBLK
  5
8B
100
AcDbEntity
  8
0
100
AcDbBlockEnd
  0
BLOCK
  5
8C
100
AcDbEntity
  8
0
100
AcDbBlockBegin
  2
_EX_INTEGRAL
 70
     0
 10
0.0
 20
0.0
 30
0.0
  3
_EX_INTEGRAL
  1

  0
LINE
  5
8D
100
AcDbEntity
  8
0
  6
CONTINUOUS
 62
     0
100
AcDbLine
 10
0.0
 20
0.0
 30
0.0
 11
-1.0
 21
0.0
 31
0.0
  0
ARC
  5
8E
100
AcDbEntity
  8
0
  6
CONTINUOUS
 62
     0
100
AcDbCircle
 10
0.542115
 20
0.164992
 30
0.0
 40
0.56667
100
AcDbArc
 50
73.07249
 51
196.927513
  0
ARC
  5
8F
100
AcDbEntity
  8
0
  6
CONTINUOUS
 62
     0
100
AcDbCircle
 10
-0.542115
 20
-0.164992
 30
0.0
 40
0.56667
100
AcDbArc
 50
253.072487
 51
16.927513
  0
ENDBLK
  5
90
100
AcDbEntity
  8
0
100
AcDbBlockEnd
  0
BLOCK
  5
91
100
AcDbEntity
  8
0
100
AcDbBlockBegin
  2
SYM-1
 70
     0
 10
0.0
 20
0.0
 30
0.0
  3
SYM-1
  1

  0
TEXT
  5
92
100
AcDbEntity
  8
0
  6
CONTINUOUS
 62
     2
100
AcDbText
 10
-2.828427
 20
-2.828427
 30
0.0
 40
5.656854
  1
１
 41
0.84
  7
EXCADSTD
 72
     5
 11
1.697056
 21
-2.828427
 31
0.0
100
AcDbText
  0
CIRCLE
  5
93
100
AcDbEntity
  8
0
  6
CONTINUOUS
 62
     1
100
AcDbCircle
 10
0.0
 20
0.0
 30
0.0
 40
4.0
  0
TEXT
  5
94
100
AcDbEntity
  8
0
  6
CONTINUOUS
 62
     2
100
AcDbText
 10
6.6
 20
-3.2
 30
0.0
 40
7.0
  1
トップピボット（上枠側）
 41
0.672
  7
EXCADSTD
 72
     5
 11
73.799999
 21
-3.2
 31
0.0
100
AcDbText
  0
LINE
  5
95
100
AcDbEntity
  8
0
  6
CONTINUOUS
 62
     1
100
AcDbLine
 10
4.0
 20
-3.7
 30
0.0
 11
70.1
 21
-3.7
 31
0.0
  0
ENDBLK
  5
96
100
AcDbEntity
  8
0
100
AcDbBlockEnd
  0
BLOCK
  5
97
100
AcDbEntity
  8
0
100
AcDbBlockBegin
  2
SYM-2
 70
     0
 10
0.0
 20
0.0
 30
0.0
  3
SYM-2
  1

  0
TEXT
  5
98
100
AcDbEntity
  8
0
  6
CONTINUOUS
 62
     2
100
AcDbText
 10
-2.828427
 20
-2.828427
 30
0.0
 40
5.656854
  1
２
 41
0.84
  7
EXCADSTD
 72
     5
 11
1.697056
 21
-2.828427
 31
0.0
100
AcDbText
  0
CIRCLE
  5
99
100
AcDbEntity
  8
0
  6
CONTINUOUS
 62
     1
100
AcDbCircle
 10
0.0
 20
0.0
 30
0.0
 40
4.0
  0
TEXT
  5
9A
100
AcDbEntity
  8
0
  6
CONTINUOUS
 62
     2
100
AcDbText
 10
6.6
 20
-3.2
 30
0.0
 40
7.0
  1
トップピボット（ドア側）
 41
0.672
  7
EXCADSTD
 72
     5
 11
73.799999
 21
-3.2
 31
0.0
100
AcDbText
  0
LINE
  5
9B
100
AcDbEntity
  8
0
  6
CONTINUOUS
 62
     1
100
AcDbLine
 10
4.0
 20
-3.7
 30
0.0
 11
71.0
 21
-3.7
 31
0.0
  0
ENDBLK
  5
9C
100
AcDbEntity
  8
0
100
AcDbBlockEnd
  0
BLOCK
  5
9D
100
AcDbEntity
  8
0
100
AcDbBlockBegin
  2
SYM-3
 70
     0
 10
0.0
 20
0.0
 30
0.0
  3
SYM-3
  1

  0
TEXT
  5
9E
100
AcDbEntity
  8
0
  6
CONTINUOUS
 62
     2
100
AcDbText
 10
-2.7
 20
-1.0
 30
0.0
 40
5.0
  1
Ｐ
 41
0.672
  7
EXCADSTD
 72
     5
 11
0.5
 21
-1.0
 31
0.0
100
AcDbText
  0
TEXT
  5
9F
100
AcDbEntity
  8
0
  6
CONTINUOUS
 62
     2
100
AcDbText
 10
-1.8
 20
-0.9
 30
0.0
 40
5.0
  1
Ｌ
 41
0.672
  7
EXCADSTD
 72
     5
 11
1.4
 21
-0.9
 31
0.0
100
AcDbText
  0
ENDBLK
  5
A0
100
AcDbEntity
  8
0
100
AcDbBlockEnd
  0
ENDSEC
  0
SECTION
  2
ENTITIES
  0
LINE
  5
A1
100
AcDbEntity
  8
LAY-1
  6
CONTINUOUS
 62
     3
100
AcDbLine
 10
442.1
 20
495.0
 30
0.0
 11
405.1
 21
495.0
 31
0.0
  0
LINE
  5
A2
100
AcDbEntity
  8
LAY-1
  6
CONTINUOUS
 62
     3
100
AcDbLine
 10
442.1
 20
494.2
 30
0.0
 11
405.1
 21
494.2
 31
0.0
  0
LINE
  5
A3
100
AcDbEntity
  8
LAY-1
  6
CONTINUOUS
 62
     3
100
AcDbLine
 10
405.1
 20
494.2
 30
0.0
 11
405.1
 21
495.00003
 31
0.0
  0
LINE
  5
A4
100
AcDbEntity
  8
LAY-1
  6
CONTINUOUS
 62
     3
100
AcDbLine
 10
442.1
 20
494.2
 30
0.0
 11
442.1
 21
495.00003
 31
0.0
  0
LINE
  5
A5
100
AcDbEntity
  8
LAY-1
  6
CONTINUOUS
 62
     3
100
AcDbLine
 10
407.6
 20
501.00003
 30
0.0
 11
407.6
 21
495.00003
 31
0.0
  0
LINE
  5
A6
100
AcDbEntity
  8
LAY-1
  6
CONTINUOUS
 62
     3
100
AcDbLine
 10
439.6
 20
501.0
 30
0.0
 11
439.6
 21
495.0
 31
0.0
  0
LINE
  5
A7
100
AcDbEntity
  8
LAY-1
  6
CONTINUOUS
 62
     3
100
AcDbLine
 10
418.500024
 20
501.000061
 30
0.0
 11
418.500024
 21
507.000061
 31
0.0
  0
LINE
  5
A8
100
AcDbEntity
  8
LAY-1
  6
CONTINUOUS
 62
     3
100
AcDbLine
 10
428.700037
 20
501.000061
 30
0.0
 11
428.700037
 21
507.000061
 31
0.0
  0
LINE
  5
A9
100
AcDbEntity
  8
LAY-1
  6
CONTINUOUS
 62
     3
100
AcDbLine
 10
418.500024
 20
507.000061
 30
0.0
 11
428.700037
 21
507.000061
 31
0.0
  0
LINE
  5
AA
100
AcDbEntity
  8
LAY-1
  6
CONTINUOUS
 62
     1
100
AcDbLine
 10
419.10003
 20
501.000061
 30
0.0
 11
419.10003
 21
507.000061
 31
0.0
  0
LINE
  5
AB
100
AcDbEntity
  8
LAY-1
  6
CONTINUOUS
 62
     1
100
AcDbLine
 10
428.10003
 20
501.000061
 30
0.0
 11
428.10003
 21
507.000061
 31
0.0
  0
LINE
  5
AC
100
AcDbEntity
  8
LAY-1
  6
CONTINUOUS
 62
     3
100
AcDbLine
 10
420.10003
 20
511.626587
 30
0.0
 11
420.10003
 21
507.000061
 31
0.0
  0
LINE
  5
AD
100
AcDbEntity
  8
LAY-1
  6
CONTINUOUS
 62
     3
100
AcDbLine
 10
427.10003
 20
511.626587
 30
0.0
 11
427.10003
 21
507.000061
 31
0.0
  0
LINE
  5
AE
100
AcDbEntity
  8
LAY-1
  6
CONTINUOUS
 62
     3
100
AcDbLine
 10
417.6
 20
516.5
 30
0.0
 11
417.6
 21
501.0
 31
0.0
  0
LINE
  5
AF
100
AcDbEntity
  8
LAY-1
  6
CONTINUOUS
 62
     3
100
AcDbLine
 10
429.6
 20
516.5
 30
0.0
 11
429.6
 21
501.0
 31
0.0
  0
LINE
  5
B0
100
AcDbEntity
  8
LAY-1
  6
CONTINUOUS
 62
     3
100
AcDbLine
 10
421.35
 20
531.0
 30
0.0
 11
421.35
 21
510.396545
 31
0.0
  0
LINE
  5
B1
100
AcDbEntity
  8
LAY-1
  6
CONTINUOUS
 62
     3
100
AcDbLine
 10
425.85
 20
531.0
 30
0.0
 11
425.85
 21
510.396545
 31
0.0
  0
LINE
  5
B2
100
AcDbEntity
  8
LAY-1
  6
CONTINUOUS
 62
     3
100
AcDbLine
 10
421.35
 20
531.0
 30
0.0
 11
425.85
 21
531.0
 31
0.0
  0
LINE
  5
B3
100
AcDbEntity
  8
LAY-1
  6
CONTINUOUS
 62
     3
100
AcDbLine
 10
421.35
 20
510.396545
 30
0.0
 11
425.85
 21
510.396545
 31
0.0
  0
LINE
  5
B4
100
AcDbEntity
  8
LAY-1
  6
CONTINUOUS
 62
     3
100
AcDbLine
 10
420.10003
 20
511.626587
 30
0.0
 11
421.35
 21
511.626587
 31
0.0
  0
LINE
  5
B5
100
AcDbEntity
  8
LAY-1
  6
CONTINUOUS
 62
     3
100
AcDbLine
 10
425.85
 20
511.626587
 30
0.0
 11
427.100061
 21
511.626587
 31
0.0
  0
ARC
  5
B6
100
AcDbEntity
  8
LAY-1
  6
CONTINUOUS
 62
     3
100
AcDbCircle
 10
423.6
 20
516.5
 30
0.0
 40
6.0
100
AcDbArc
 50
305.685646
 51
67.975687
  0
ARC
  5
B7
100
AcDbEntity
  8
LAY-1
  6
CONTINUOUS
 62
     3
100
AcDbCircle
 10
423.6
 20
516.5
 30
0.0
 40
6.0
100
AcDbArc
 50
112.024313
 51
234.314969
  0
LINE
  5
B8
100
AcDbEntity
  8
LAY-1
  6
CONTINUOUS
 62
     3
100
AcDbLine
 10
414.099958
 20
533.0
 30
0.0
 11
414.099958
 21
500.999969
 31
0.0
  0
LINE
  5
B9
100
AcDbEntity
  8
LAY-1
  6
CONTINUOUS
 62
     3
100
AcDbLine
 10
433.099982
 20
500.999969
 30
0.0
 11
433.099982
 21
533.0
 31
0.0
  0
LINE
  5
BA
100
AcDbEntity
  8
LAY-1
  6
CONTINUOUS
 62
     3
100
AcDbLine
 10
439.6
 20
501.0
 30
0.0
 11
407.6
 21
501.0
 31
0.0
  0
LINE
  5
BB
100
AcDbEntity
  8
LAY-1
  6
CONTINUOUS
 62
     3
100
AcDbLine
 10
433.099982
 20
533.0
 30
0.0
 11
414.099958
 21
533.0
 31
0.0
  0
LINE
  5
BC
100
AcDbEntity
  8
LAY-1
  6
CONTINUOUS
 62
     3
100
AcDbLine
 10
245.0
 20
495.0
 30
0.0
 11
245.0
 21
501.0
 31
0.0
  0
ARC
  5
BD
100
AcDbEntity
  8
LAY-1
  6
CONTINUOUS
 62
     3
100
AcDbCircle
 10
189.99997
 20
512.5
 30
0.0
 40
6.0
100
AcDbArc
 50
0.0
 51
180.00002
  0
ARC
  5
BE
100
AcDbEntity
  8
LAY-1
  6
CONTINUOUS
 62
     3
100
AcDbCircle
 10
210.99997
 20
516.5
 30
0.0
 40
6.0
100
AcDbArc
 50
305.685646
 51
234.314969
  0
LINE
  5
BF
100
AcDbEntity
  8
LAY-1
  6
CONTINUOUS
 62
     3
100
AcDbLine
 10
205.899994
 20
501.000061
 30
0.0
 11
205.899994
 21
507.000061
 31
0.0
  0
LINE
  5
C0
100
AcDbEntity
  8
LAY-1
  6
CONTINUOUS
 62
     3
100
AcDbLine
 10
216.100007
 20
501.000061
 30
0.0
 11
216.100007
 21
507.000061
 31
0.0
  0
LINE
  5
C1
100
AcDbEntity
  8
LAY-1
  6
CONTINUOUS
 62
     3
100
AcDbLine
 10
205.899994
 20
507.000061
 30
0.0
 11
216.100007
 21
507.000061
 31
0.0
  0
LINE
  5
C2
100
AcDbEntity
  8
LAY-1
  6
CONTINUOUS
 62
     1
100
AcDbLine
 10
206.5
 20
501.000061
 30
0.0
 11
206.5
 21
507.000061
 31
0.0
  0
LINE
  5
C3
100
AcDbEntity
  8
LAY-1
  6
CONTINUOUS
 62
     1
100
AcDbLine
 10
215.5
 20
501.000061
 30
0.0
 11
215.5
 21
507.000061
 31
0.0
  0
LINE
  5
C4
100
AcDbEntity
  8
LAY-1
  6
CONTINUOUS
 62
     3
100
AcDbLine
 10
207.5
 20
511.626587
 30
0.0
 11
207.5
 21
507.000061
 31
0.0
  0
LINE
  5
C5
100
AcDbEntity
  8
LAY-1
  6
CONTINUOUS
 62
     3
100
AcDbLine
 10
214.5
 20
511.626587
 30
0.0
 11
214.5
 21
507.000061
 31
0.0
  0
LINE
  5
C6
100
AcDbEntity
  8
LAY-1
  6
CONTINUOUS
 62
     3
100
AcDbLine
 10
207.5
 20
511.626587
 30
0.0
 11
214.500031
 21
511.626587
 31
0.0
  0
LINE
  5
C7
100
AcDbEntity
  8
LAY-1
  6
CONTINUOUS
 62
     3
100
AcDbLine
 10
195.99997
 20
512.5
 30
0.0
 11
195.99997
 21
501.000061
 31
0.0
  0
LINE
  5
C8
100
AcDbEntity
  8
LAY-1
  6
CONTINUOUS
 62
     3
100
AcDbLine
 10
183.99997
 20
512.5
 30
0.0
 11
183.99997
 21
501.000061
 31
0.0
  0
ARC
  5
C9
100
AcDbEntity
  8
LAY-1
  6
CONTINUOUS
 62
     3
100
AcDbCircle
 10
210.99997
 20
516.5
 30
0.0
 40
11.0
100
AcDbArc
 50
333.214091
 51
359.999982
  0
ARC
  5
CA
100
AcDbEntity
  8
LAY-1
  6
CONTINUOUS
 62
     3
100
AcDbCircle
 10
209.99997
 20
519.0
 30
0.0
 40
12.0
100
AcDbArc
 50
0.0
 51
94.76361
  0
LINE
  5
CB
100
AcDbEntity
  8
LAY-1
  6
CONTINUOUS
 62
     3
100
AcDbLine
 10
221.99997
 20
519.0
 30
0.0
 11
221.99997
 21
516.5
 31
0.0
  0
ARC
  5
CC
100
AcDbEntity
  8
LAY-1
  6
CONTINUOUS
 62
     3
100
AcDbCircle
 10
218.606629
 20
512.896545
 30
0.0
 40
2.5
100
AcDbArc
 50
180.00002
 51
328.367269
  0
LINE
  5
CD
100
AcDbEntity
  8
LAY-1
  6
CONTINUOUS
 62
     3
100
AcDbLine
 10
208.99997
 20
531.0
 30
0.0
 11
121.99997
 21
508.5
 31
0.0
  0
LINE
  5
CE
100
AcDbEntity
  8
LAY-1
  6
CONTINUOUS
 62
     3
100
AcDbLine
 10
206.99997
 20
512.027832
 30
0.0
 11
206.99997
 21
509.292053
 31
0.0
  0
LINE
  5
CF
100
AcDbEntity
  8
LAY-1
  6
CONTINUOUS
 62
     3
100
AcDbLine
 10
195.99997
 20
505.911804
 30
0.0
 11
206.229004
 21
508.318603
 31
0.0
  0
ARC
  5
D0
100
AcDbEntity
  8
LAY-1
  6
CONTINUOUS
 62
     3
100
AcDbCircle
 10
205.99997
 20
509.292053
 30
0.0
 40
1.0
100
AcDbArc
 50
283.240597
 51
359.999982
  0
LINE
  5
D1
100
AcDbEntity
  8
LAY-1
  6
CONTINUOUS
 62
     3
100
AcDbLine
 10
183.99997
 20
504.323547
 30
0.0
 11
174.270569
 21
504.037292
 31
0.0
  0
LINE
  5
D2
100
AcDbEntity
  8
LAY-1
  6
CONTINUOUS
 62
     3
100
AcDbLine
 10
125.0
 20
502.588226
 30
0.0
 11
121.99997
 21
502.5
 31
0.0
  0
ARC
  5
D3
100
AcDbEntity
  8
LAY-1
  6
CONTINUOUS
 62
     3
100
AcDbCircle
 10
164.756913
 20
502.75708
 30
0.0
 40
1.0
100
AcDbArc
 50
32.083058
 51
75.931117
  0
ARC
  5
D4
100
AcDbEntity
  8
LAY-1
  6
CONTINUOUS
 62
     3
100
AcDbCircle
 10
174.299973
 20
503.03778
 30
0.0
 40
1.0
100
AcDbArc
 50
91.684764
 51
180.00002
  0
LINE
  5
D5
100
AcDbEntity
  8
LAY-1
  6
CONTINUOUS
 62
     3
100
AcDbLine
 10
173.299973
 20
503.03778
 30
0.0
 11
173.299973
 21
501.0
 31
0.0
  0
LINE
  5
D6
100
AcDbEntity
  8
LAY-1
  6
CONTINUOUS
 62
     3
100
AcDbLine
 10
165.604187
 20
503.288208
 30
0.0
 11
167.038651
 21
501.0
 31
0.0
  0
LINE
  5
D7
100
AcDbEntity
  8
LAY-1
  6
CONTINUOUS
 62
     3
100
AcDbLine
 10
94.0
 20
495.0
 30
0.0
 11
94.0
 21
501.0
 31
0.0
  0
LINE
  5
D8
100
AcDbEntity
  8
LAY-1
  6
CONTINUOUS
 62
     3
100
AcDbLine
 10
251.0
 20
495.0
 30
0.0
 11
90.0
 21
495.0
 31
0.0
  0
LINE
  5
D9
100
AcDbEntity
  8
LAY-1
  6
CONTINUOUS
 62
     3
100
AcDbLine
 10
251.0
 20
494.2
 30
0.0
 11
90.0
 21
494.2
 31
0.0
  0
LINE
  5
DA
100
AcDbEntity
  8
LAY-1
  6
CONTINUOUS
 62
     3
100
AcDbLine
 10
251.0
 20
495.0
 30
0.0
 11
251.0
 21
494.2
 31
0.0
  0
LINE
  5
DB
100
AcDbEntity
  8
LAY-1
  6
CONTINUOUS
 62
     3
100
AcDbLine
 10
90.0
 20
495.0
 30
0.0
 11
90.0
 21
494.2
 31
0.0
  0
LINE
  5
DC
100
AcDbEntity
  8
LAY-1
  6
CONTINUOUS
 62
     3
100
AcDbLine
 10
100.500019
 20
501.000061
 30
0.0
 11
100.500019
 21
532.999961
 31
0.0
  0
LINE
  5
DD
100
AcDbEntity
  8
LAY-1
  6
CONTINUOUS
 62
     3
100
AcDbLine
 10
119.500013
 20
501.000061
 30
0.0
 11
119.500013
 21
532.999961
 31
0.0
  0
LINE
  5
DE
100
AcDbEntity
  8
LAY-1
  6
CONTINUOUS
 62
     3
100
AcDbLine
 10
121.99997
 20
502.5
 30
0.0
 11
119.550016
 21
502.5
 31
0.0
  0
LINE
  5
DF
100
AcDbEntity
  8
LAY-1
  6
CONTINUOUS
 62
     3
100
AcDbLine
 10
121.99997
 20
508.5
 30
0.0
 11
119.550016
 21
508.5
 31
0.0
  0
LINE
  5
E0
100
AcDbEntity
  8
LAY-1
  6
CONTINUOUS
 62
     3
100
AcDbLine
 10
100.500019
 20
532.999961
 30
0.0
 11
119.500013
 21
532.999961
 31
0.0
  0
LINE
  5
E1
100
AcDbEntity
  8
LAY-1
  6
CONTINUOUS
 62
     3
100
AcDbLine
 10
94.0
 20
501.0
 30
0.0
 11
245.0
 21
501.0
 31
0.0
  0
CIRCLE
  5
E2
100
AcDbEntity
  8
LAY-1
  6
CONTINUOUS
 62
     3
100
AcDbCircle
 10
707.0
 20
484.000061
 30
0.0
 40
3.35
  0
CIRCLE
  5
E3
100
AcDbEntity
  8
LAY-1
  6
DASHED2
 62
     3
100
AcDbCircle
 10
707.0
 20
502.0
 30
0.0
 40
6.0
  0
CIRCLE
  5
E4
100
AcDbEntity
  8
LAY-1
  6
CONTINUOUS
 62
     3
100
AcDbCircle
 10
707.0
 20
502.0
 30
0.0
 40
3.35
  0
CIRCLE
  5
E5
100
AcDbEntity
  8
LAY-1
  6
CONTINUOUS
 62
     3
100
AcDbCircle
 10
585.0
 20
493.0
 30
0.0
 40
6.25
  0
LINE
  5
E6
100
AcDbEntity
  8
LAY-1
  6
CONTINUOUS
 62
     3
100
AcDbLine
 10
697.0
 20
490.75
 30
0.0
 11
697.0
 21
495.25
 31
0.0
  0
LINE
  5
E7
100
AcDbEntity
  8
LAY-1
  6
CONTINUOUS
 62
     3
100
AcDbLine
 10
594.229675
 20
495.25
 30
0.0
 11
697.0
 21
495.25
 31
0.0
  0
LINE
  5
E8
100
AcDbEntity
  8
LAY-1
  6
CONTINUOUS
 62
     3
100
AcDbLine
 10
594.229675
 20
490.75
 30
0.0
 11
697.0
 21
490.75
 31
0.0
  0
ARC
  5
E9
100
AcDbEntity
  8
LAY-1
  6
CONTINUOUS
 62
     3
100
AcDbCircle
 10
645.0
 20
493.0
 30
0.0
 40
5.0
100
AcDbArc
 50
26.743665
 51
153.256355
  0
ARC
  5
EA
100
AcDbEntity
  8
LAY-1
  6
CONTINUOUS
 62
     3
100
AcDbCircle
 10
645.0
 20
493.0
 30
0.0
 40
5.0
100
AcDbArc
 50
205.468338
 51
331.882709
  0
ARC
  5
EB
100
AcDbEntity
  8
LAY-1
  6
CONTINUOUS
 62
     3
100
AcDbCircle
 10
686.0
 20
493.0
 30
0.0
 40
6.0
100
AcDbArc
 50
22.024383
 51
156.514709
  0
ARC
  5
EC
100
AcDbEntity
  8
LAY-1
  6
CONTINUOUS
 62
     3
100
AcDbCircle
 10
686.0
 20
493.0
 30
0.0
 40
6.0
100
AcDbArc
 50
203.485273
 51
337.366545
  0
LINE
  5
ED
100
AcDbEntity
  8
LAY-1
  6
CONTINUOUS
 62
     3
100
AcDbLine
 10
671.0
 20
490.450073
 30
0.0
 11
659.0
 21
490.450073
 31
0.0
  0
LINE
  5
EE
100
AcDbEntity
  8
LAY-1
  6
CONTINUOUS
 62
     3
100
AcDbLine
 10
671.0
 20
495.550048
 30
0.0
 11
659.0
 21
495.550048
 31
0.0
  0
LINE
  5
EF
100
AcDbEntity
  8
LAY-1
  6
CONTINUOUS
 62
     3
100
AcDbLine
 10
671.0
 20
498.750061
 30
0.0
 11
659.0
 21
498.750061
 31
0.0
  0
LINE
  5
F0
100
AcDbEntity
  8
LAY-1
  6
CONTINUOUS
 62
     3
100
AcDbLine
 10
659.0
 20
487.250061
 30
0.0
 11
671.0
 21
487.250061
 31
0.0
  0
LINE
  5
F1
100
AcDbEntity
  8
LAY-1
  6
CONTINUOUS
 62
     3
100
AcDbLine
 10
671.0
 20
498.850036
 30
0.0
 11
671.0
 21
495.650024
 31
0.0
  0
LINE
  5
F2
100
AcDbEntity
  8
LAY-1
  6
CONTINUOUS
 62
     3
100
AcDbLine
 10
659.0
 20
498.850036
 30
0.0
 11
659.0
 21
495.550048
 31
0.0
  0
LINE
  5
F3
100
AcDbEntity
  8
LAY-1
  6
CONTINUOUS
 62
     3
100
AcDbLine
 10
671.0
 20
487.149963
 30
0.0
 11
671.0
 21
490.349975
 31
0.0
  0
LINE
  5
F4
100
AcDbEntity
  8
LAY-1
  6
CONTINUOUS
 62
     3
100
AcDbLine
 10
659.0
 20
487.149963
 30
0.0
 11
659.0
 21
490.449951
 31
0.0
  0
LINE
  5
F5
100
AcDbEntity
  8
LAY-1
  6
CONTINUOUS
 62
     3
100
AcDbLine
 10
668.5
 20
495.550048
 30
0.0
 11
668.5
 21
495.25
 31
0.0
  0
LINE
  5
F6
100
AcDbEntity
  8
LAY-1
  6
CONTINUOUS
 62
     3
100
AcDbLine
 10
661.5
 20
495.550048
 30
0.0
 11
661.5
 21
495.25
 31
0.0
  0
LINE
  5
F7
100
AcDbEntity
  8
LAY-1
  6
CONTINUOUS
 62
     3
100
AcDbLine
 10
668.5
 20
490.75
 30
0.0
 11
668.5
 21
490.450073
 31
0.0
  0
LINE
  5
F8
100
AcDbEntity
  8
LAY-1
  6
CONTINUOUS
 62
     3
100
AcDbLine
 10
661.5
 20
490.75
 30
0.0
 11
661.5
 21
490.450073
 31
0.0
  0
CIRCLE
  5
F9
100
AcDbEntity
  8
LAY-1
  6
CONTINUOUS
 62
     3
100
AcDbCircle
 10
585.0
 20
492.999938
 30
0.0
 40
9.45
  0
CIRCLE
  5
FA
100
AcDbEntity
  8
LAY-1
  6
DASHED2
 62
     3
100
AcDbCircle
 10
610.0
 20
502.0
 30
0.0
 40
6.0
  0
CIRCLE
  5
FB
100
AcDbEntity
  8
LAY-1
  6
CONTINUOUS
 62
     3
100
AcDbCircle
 10
610.0
 20
502.0
 30
0.0
 40
3.35
  0
CIRCLE
  5
FC
100
AcDbEntity
  8
LAY-1
  6
CONTINUOUS
 62
     3
100
AcDbCircle
 10
630.0
 20
484.0
 30
0.0
 40
3.35
  0
LINE
  5
FD
100
AcDbEntity
  8
LAY-1
  6
CONTINUOUS
 62
     3
100
AcDbLine
 10
569.0
 20
509.0
 30
0.0
 11
720.0
 21
509.0
 31
0.0
  0
LINE
  5
FE
100
AcDbEntity
  8
LAY-1
  6
DIVIDE
 62
     1
100
AcDbLine
 10
564.0
 20
511.500061
 30
0.0
 11
726.0
 21
511.5
 31
0.0
  0
LINE
  5
FF
100
AcDbEntity
  8
LAY-1
  6
DIVIDE
 62
     1
100
AcDbLine
 10
726.0
 20
511.5
 30
0.0
 11
726.0
 21
474.499961
 31
0.0
  0
LINE
  5
100
100
AcDbEntity
  8
LAY-1
  6
CONTINUOUS
 62
     3
100
AcDbLine
 10
720.0
 20
509.0
 30
0.0
 11
720.0
 21
476.999961
 31
0.0
  0
CIRCLE
  5
101
100
AcDbEntity
  8
LAY-1
  6
DASHED2
 62
     3
100
AcDbCircle
 10
707.0
 20
483.999961
 30
0.0
 40
6.0
  0
CIRCLE
  5
102
100
AcDbEntity
  8
LAY-1
  6
DASHED2
 62
     3
100
AcDbCircle
 10
630.0
 20
483.9999
 30
0.0
 40
6.0
  0
LINE
  5
103
100
AcDbEntity
  8
LAY-1
  6
CONTINUOUS
 62
     3
100
AcDbLine
 10
569.0
 20
476.999961
 30
0.0
 11
569.0
 21
509.0
 31
0.0
  0
LINE
  5
104
100
AcDbEntity
  8
LAY-1
  6
CONTINUOUS
 62
     3
100
AcDbLine
 10
569.0
 20
476.999961
 30
0.0
 11
720.0
 21
476.999961
 31
0.0
  0
LINE
  5
105
100
AcDbEntity
  8
LAY-1
  6
DIVIDE
 62
     1
100
AcDbLine
 10
564.0
 20
511.5
 30
0.0
 11
564.0
 21
474.499961
 31
0.0
  0
LINE
  5
106
100
AcDbEntity
  8
LAY-1
  6
DIVIDE
 62
     1
100
AcDbLine
 10
726.0
 20
474.4999
 30
0.0
 11
564.0
 21
474.4999
 31
0.0
  0
LINE
  5
107
100
AcDbEntity
  8
LAY-2
  6
CONTINUOUS
 62
     3
100
AcDbLine
 10
436.1
 20
492.0
 30
0.0
 11
411.1
 21
492.0
 31
0.0
  0
LINE
  5
108
100
AcDbEntity
  8
LAY-2
  6
CONTINUOUS
 62
     3
100
AcDbLine
 10
436.1
 20
483.0
 30
0.0
 11
411.1
 21
483.0
 31
0.0
  0
LINE
  5
109
100
AcDbEntity
  8
LAY-2
  6
CONTINUOUS
 62
     3
100
AcDbLine
 10
411.1
 20
483.00003
 30
0.0
 11
411.1
 21
492.0
 31
0.0
  0
LINE
  5
10A
100
AcDbEntity
  8
LAY-2
  6
CONTINUOUS
 62
     3
100
AcDbLine
 10
436.1
 20
483.00003
 30
0.0
 11
436.1
 21
491.999969
 31
0.0
  0
LINE
  5
10B
100
AcDbEntity
  8
LAY-2
  6
CONTINUOUS
 62
     3
100
AcDbLine
 10
417.35
 20
492.0
 30
0.0
 11
417.35
 21
494.00003
 31
0.0
  0
LINE
  5
10C
100
AcDbEntity
  8
LAY-2
  6
CONTINUOUS
 62
     3
100
AcDbLine
 10
429.85
 20
492.0
 30
0.0
 11
429.85
 21
494.00003
 31
0.0
  0
LINE
  5
10D
100
AcDbEntity
  8
LAY-2
  6
CONTINUOUS
 62
     3
100
AcDbLine
 10
418.35
 20
476.999969
 30
0.0
 11
428.85
 21
476.999969
 31
0.0
  0
LINE
  5
10E
100
AcDbEntity
  8
LAY-2
  6
CONTINUOUS
 62
     3
100
AcDbLine
 10
417.35
 20
477.999969
 30
0.0
 11
418.35
 21
476.999969
 31
0.0
  0
LINE
  5
10F
100
AcDbEntity
  8
LAY-2
  6
CONTINUOUS
 62
     3
100
AcDbLine
 10
429.85
 20
477.999969
 30
0.0
 11
428.85
 21
476.999969
 31
0.0
  0
LINE
  5
110
100
AcDbEntity
  8
LAY-2
  6
CONTINUOUS
 62
     3
100
AcDbLine
 10
417.35
 20
477.999969
 30
0.0
 11
429.85
 21
477.999969
 31
0.0
  0
LINE
  5
111
100
AcDbEntity
  8
LAY-2
  6
DASHED2
 62
     3
100
AcDbLine
 10
429.85
 20
483.0
 30
0.0
 11
429.85
 21
479.8
 31
0.0
  0
LINE
  5
112
100
AcDbEntity
  8
LAY-2
  6
CONTINUOUS
 62
     3
100
AcDbLine
 10
429.85
 20
479.8
 30
0.0
 11
429.85
 21
477.999969
 31
0.0
  0
LINE
  5
113
100
AcDbEntity
  8
LAY-2
  6
DASHED2
 62
     3
100
AcDbLine
 10
417.35
 20
483.00003
 30
0.0
 11
417.35
 21
479.8
 31
0.0
  0
LINE
  5
114
100
AcDbEntity
  8
LAY-2
  6
CONTINUOUS
 62
     3
100
AcDbLine
 10
417.35
 20
479.8
 30
0.0
 11
417.35
 21
477.999969
 31
0.0
  0
LINE
  5
115
100
AcDbEntity
  8
LAY-2
  6
CONTINUOUS
 62
     3
100
AcDbLine
 10
250.0
 20
483.0
 30
0.0
 11
250.0
 21
492.0
 31
0.0
  0
LINE
  5
116
100
AcDbEntity
  8
LAY-2
  6
CONTINUOUS
 62
     3
100
AcDbLine
 10
95.999985
 20
483.0
 30
0.0
 11
95.999985
 21
492.0
 31
0.0
  0
LINE
  5
117
100
AcDbEntity
  8
LAY-2
  6
CONTINUOUS
 62
     3
100
AcDbLine
 10
250.0
 20
492.0
 30
0.0
 11
95.999985
 21
492.0
 31
0.0
  0
LINE
  5
118
100
AcDbEntity
  8
LAY-2
  6
CONTINUOUS
 62
     3
100
AcDbLine
 10
250.0
 20
483.0
 30
0.0
 11
95.999985
 21
483.0
 31
0.0
  0
LINE
  5
119
100
AcDbEntity
  8
LAY-2
  6
CONTINUOUS
 62
     3
100
AcDbLine
 10
116.249985
 20
492.00003
 30
0.0
 11
116.249985
 21
494.2
 31
0.0
  0
LINE
  5
11A
100
AcDbEntity
  8
LAY-2
  6
CONTINUOUS
 62
     3
100
AcDbLine
 10
103.749985
 20
492.00003
 30
0.0
 11
103.749985
 21
494.2
 31
0.0
  0
LINE
  5
11B
100
AcDbEntity
  8
LAY-2
  6
DASHED2
 62
     3
100
AcDbLine
 10
103.749985
 20
492.00003
 30
0.0
 11
103.749985
 21
482.799957
 31
0.0
  0
LINE
  5
11C
100
AcDbEntity
  8
LAY-2
  6
DASHED2
 62
     3
100
AcDbLine
 10
116.249985
 20
492.00003
 30
0.0
 11
116.249985
 21
483.00003
 31
0.0
  0
LINE
  5
11D
100
AcDbEntity
  8
LAY-2
  6
CONTINUOUS
 62
     3
100
AcDbLine
 10
103.749985
 20
483.00003
 30
0.0
 11
103.749985
 21
477.999969
 31
0.0
  0
LINE
  5
11E
100
AcDbEntity
  8
LAY-2
  6
CONTINUOUS
 62
     3
100
AcDbLine
 10
104.749985
 20
476.999969
 30
0.0
 11
115.249985
 21
476.999969
 31
0.0
  0
LINE
  5
11F
100
AcDbEntity
  8
LAY-2
  6
CONTINUOUS
 62
     3
100
AcDbLine
 10
116.249985
 20
483.00003
 30
0.0
 11
116.249985
 21
477.999969
 31
0.0
  0
LINE
  5
120
100
AcDbEntity
  8
LAY-2
  6
CONTINUOUS
 62
     3
100
AcDbLine
 10
103.749985
 20
477.999969
 30
0.0
 11
104.749985
 21
476.999969
 31
0.0
  0
LINE
  5
121
100
AcDbEntity
  8
LAY-2
  6
CONTINUOUS
 62
     3
100
AcDbLine
 10
116.249985
 20
477.999969
 30
0.0
 11
115.249985
 21
476.999969
 31
0.0
  0
LINE
  5
122
100
AcDbEntity
  8
LAY-2
  6
CONTINUOUS
 62
     3
100
AcDbLine
 10
103.749985
 20
477.999969
 30
0.0
 11
116.249985
 21
477.999969
 31
0.0
  0
CIRCLE
  5
123
100
AcDbEntity
  8
LAY-2
  6
CONTINUOUS
 62
     3
100
AcDbCircle
 10
585.0
 20
377.999939
 30
0.0
 40
6.25
  0
LINE
  5
124
100
AcDbEntity
  8
LAY-2
  6
CONTINUOUS
 62
     3
100
AcDbLine
 10
579.0
 20
390.5
 30
0.0
 11
725.0
 21
390.5
 31
0.0
  0
LINE
  5
125
100
AcDbEntity
  8
LAY-2
  6
CONTINUOUS
 62
     3
100
AcDbLine
 10
725.0
 20
390.5
 30
0.0
 11
725.0
 21
365.5
 31
0.0
  0
ARC
  5
126
100
AcDbEntity
  8
LAY-2
  6
CONTINUOUS
 62
     3
100
AcDbCircle
 10
584.765625
 20
378.0
 30
0.0
 40
13.765625
100
AcDbArc
 50
114.761498
 51
245.238484
  0
CIRCLE
  5
127
100
AcDbEntity
  8
LAY-2
  6
CONTINUOUS
 62
     3
100
AcDbCircle
 10
680.0
 20
382.999939
 30
0.0
 40
2.5
  0
CIRCLE
  5
128
100
AcDbEntity
  8
LAY-2
  6
CONTINUOUS
 62
     3
100
AcDbCircle
 10
680.0
 20
382.999939
 30
0.0
 40
5.0
  0
CIRCLE
  5
129
100
AcDbEntity
  8
LAY-2
  6
CONTINUOUS
 62
     3
100
AcDbCircle
 10
610.0
 20
382.999939
 30
0.0
 40
2.5
  0
CIRCLE
  5
12A
100
AcDbEntity
  8
LAY-2
  6
CONTINUOUS
 62
     3
100
AcDbCircle
 10
610.0
 20
382.999939
 30
0.0
 40
5.0
  0
CIRCLE
  5
12B
100
AcDbEntity
  8
LAY-2
  6
CONTINUOUS
 62
     3
100
AcDbCircle
 10
644.999961
 20
372.999939
 30
0.0
 40
2.5
  0
CIRCLE
  5
12C
100
AcDbEntity
  8
LAY-2
  6
CONTINUOUS
 62
     3
100
AcDbCircle
 10
644.999961
 20
372.999939
 30
0.0
 40
5.0
  0
CIRCLE
  5
12D
100
AcDbEntity
  8
LAY-2
  6
CONTINUOUS
 62
     3
100
AcDbCircle
 10
714.999961
 20
372.999939
 30
0.0
 40
2.5
  0
CIRCLE
  5
12E
100
AcDbEntity
  8
LAY-2
  6
CONTINUOUS
 62
     3
100
AcDbCircle
 10
714.999961
 20
372.999939
 30
0.0
 40
5.0
  0
LINE
  5
12F
100
AcDbEntity
  8
LAY-2
  6
CONTINUOUS
 62
     3
100
AcDbLine
 10
725.0
 20
365.5
 30
0.0
 11
579.0
 21
365.5
 31
0.0
  0
LINE
  5
130
100
AcDbEntity
  8
LAY-3
  6
CONTINUOUS
 62
     3
100
AcDbLine
 10
437.6
 20
236.8
 30
0.0
 11
409.6
 21
236.8
 31
0.0
  0
LINE
  5
131
100
AcDbEntity
  8
LAY-3
  6
CONTINUOUS
 62
     3
100
AcDbLine
 10
437.5
 20
234.3
 30
0.0
 11
409.7
 21
234.3
 31
0.0
  0
LINE
  5
132
100
AcDbEntity
  8
LAY-3
  6
CONTINUOUS
 62
     3
100
AcDbLine
 10
432.6
 20
225.3
 30
0.0
 11
434.1
 21
225.3
 31
0.0
  0
LINE
  5
133
100
AcDbEntity
  8
LAY-3
  6
CONTINUOUS
 62
     3
100
AcDbLine
 10
413.1
 20
225.3
 30
0.0
 11
414.6
 21
225.3
 31
0.0
  0
ARC
  5
134
100
AcDbEntity
  8
LAY-3
  6
CONTINUOUS
 62
     3
100
AcDbCircle
 10
414.1
 20
216.214214
 30
0.0
 40
1.0
100
AcDbArc
 50
180.0
 51
225.0
  0
ARC
  5
135
100
AcDbEntity
  8
LAY-3
  6
CONTINUOUS
 62
     3
100
AcDbCircle
 10
415.635527
 20
211.850259
 30
0.0
 40
1.0
100
AcDbArc
 50
5.0
 51
45.0
  0
ARC
  5
136
100
AcDbEntity
  8
LAY-3
  6
CONTINUOUS
 62
     3
100
AcDbCircle
 10
431.564473
 20
211.850259
 30
0.0
 40
1.0
100
AcDbArc
 50
135.0
 51
175.0
  0
LINE
  5
137
100
AcDbEntity
  8
LAY-3
  6
CONTINUOUS
 62
     3
100
AcDbLine
 10
433.807107
 20
215.507107
 30
0.0
 11
430.857366
 21
212.557366
 31
0.0
  0
LINE
  5
138
100
AcDbEntity
  8
LAY-3
  6
CONTINUOUS
 62
     3
100
AcDbLine
 10
434.1
 20
216.214214
 30
0.0
 11
434.1
 21
225.3
 31
0.0
  0
ARC
  5
139
100
AcDbEntity
  8
LAY-3
  6
CONTINUOUS
 62
     3
100
AcDbCircle
 10
433.1
 20
216.214214
 30
0.0
 40
1.0
100
AcDbArc
 50
315.0
 51
0.0
  0
LINE
  5
13A
100
AcDbEntity
  8
LAY-3
  6
CONTINUOUS
 62
     3
100
AcDbLine
 10
413.1
 20
216.214214
 30
0.0
 11
413.1
 21
225.3
 31
0.0
  0
LINE
  5
13B
100
AcDbEntity
  8
LAY-3
  6
CONTINUOUS
 62
     3
100
AcDbLine
 10
413.392893
 20
215.507107
 30
0.0
 11
416.342634
 21
212.557366
 31
0.0
  0
LINE
  5
13C
100
AcDbEntity
  8
LAY-3
  6
CONTINUOUS
 62
     3
100
AcDbLine
 10
432.6
 20
226.3
 30
0.0
 11
432.6
 21
225.3
 31
0.0
  0
LINE
  5
13D
100
AcDbEntity
  8
LAY-3
  6
CONTINUOUS
 62
     3
100
AcDbLine
 10
414.6
 20
226.3
 30
0.0
 11
414.6
 21
225.3
 31
0.0
  0
LINE
  5
13E
100
AcDbEntity
  8
LAY-3
  6
CONTINUOUS
 62
     3
100
AcDbLine
 10
409.7
 20
236.8
 30
0.0
 11
409.7
 21
228.3
 31
0.0
  0
ARC
  5
13F
100
AcDbEntity
  8
LAY-3
  6
CONTINUOUS
 62
     3
100
AcDbCircle
 10
411.7
 20
228.3
 30
0.0
 40
2.0
100
AcDbArc
 50
180.0
 51
270.0
  0
LINE
  5
140
100
AcDbEntity
  8
LAY-3
  6
CONTINUOUS
 62
     3
100
AcDbLine
 10
437.5
 20
236.8
 30
0.0
 11
437.5
 21
228.3
 31
0.0
  0
ARC
  5
141
100
AcDbEntity
  8
LAY-3
  6
CONTINUOUS
 62
     3
100
AcDbCircle
 10
435.5
 20
228.3
 30
0.0
 40
2.0
100
AcDbArc
 50
270.0
 51
0.0
  0
LINE
  5
142
100
AcDbEntity
  8
LAY-3
  6
CONTINUOUS
 62
     3
100
AcDbLine
 10
435.5
 20
226.3
 30
0.0
 11
411.7
 21
226.3
 31
0.0
  0
LINE
  5
143
100
AcDbEntity
  8
LAY-3
  6
CONTINUOUS
 62
     3
100
AcDbLine
 10
409.6
 20
268.3
 30
0.0
 11
409.6
 21
236.8
 31
0.0
  0
LINE
  5
144
100
AcDbEntity
  8
LAY-3
  6
CONTINUOUS
 62
     3
100
AcDbLine
 10
437.6
 20
268.3
 30
0.0
 11
437.6
 21
236.8
 31
0.0
  0
LINE
  5
145
100
AcDbEntity
  8
LAY-3
  6
CONTINUOUS
 62
     3
100
AcDbLine
 10
436.676697
 20
423.3
 30
0.0
 11
436.676697
 21
412.8
 31
0.0
  0
LINE
  5
146
100
AcDbEntity
  8
LAY-3
  6
CONTINUOUS
 62
     3
100
AcDbLine
 10
410.523303
 20
423.3
 30
0.0
 11
410.523303
 21
412.8
 31
0.0
  0
LINE
  5
147
100
AcDbEntity
  8
LAY-3
  6
CONTINUOUS
 62
     3
100
AcDbLine
 10
411.2
 20
305.3
 30
0.0
 11
411.2
 21
295.3
 31
0.0
  0
LINE
  5
148
100
AcDbEntity
  8
LAY-3
  6
CONTINUOUS
 62
     3
100
AcDbLine
 10
412.875378
 20
295.3
 30
0.0
 11
412.875378
 21
305.3
 31
0.0
  0
LINE
  5
149
100
AcDbEntity
  8
LAY-3
  6
CONTINUOUS
 62
     3
100
AcDbLine
 10
409.6
 20
305.3
 30
0.0
 11
412.875378
 21
305.3
 31
0.0
  0
LINE
  5
14A
100
AcDbEntity
  8
LAY-3
  6
CONTINUOUS
 62
     3
100
AcDbLine
 10
409.6
 20
295.3
 30
0.0
 11
412.875378
 21
295.3
 31
0.0
  0
LINE
  5
14B
100
AcDbEntity
  8
LAY-3
  6
CONTINUOUS
 62
     3
100
AcDbLine
 10
410.1
 20
415.05
 30
0.0
 11
409.6
 21
415.55
 31
0.0
  0
LINE
  5
14C
100
AcDbEntity
  8
LAY-3
  6
CONTINUOUS
 62
     3
100
AcDbLine
 10
437.6
 20
419.8
 30
0.0
 11
437.1
 21
420.3
 31
0.0
  0
LINE
  5
14D
100
AcDbEntity
  8
LAY-3
  6
CONTINUOUS
 62
     3
100
AcDbLine
 10
437.6
 20
415.8
 30
0.0
 11
437.6
 21
419.8
 31
0.0
  0
LINE
  5
14E
100
AcDbEntity
  8
LAY-3
  6
CONTINUOUS
 62
     3
100
AcDbLine
 10
437.1
 20
415.3
 30
0.0
 11
437.6
 21
415.8
 31
0.0
  0
LINE
  5
14F
100
AcDbEntity
  8
LAY-3
  6
CONTINUOUS
 62
     3
100
AcDbLine
 10
437.1
 20
415.3
 30
0.0
 11
437.1
 21
420.3
 31
0.0
  0
LINE
  5
150
100
AcDbEntity
  8
LAY-3
  6
CONTINUOUS
 62
     3
100
AcDbLine
 10
409.6
 20
420.05
 30
0.0
 11
409.6
 21
418.55
 31
0.0
  0
LINE
  5
151
100
AcDbEntity
  8
LAY-3
  6
CONTINUOUS
 62
     3
100
AcDbLine
 10
410.1
 20
420.55
 30
0.0
 11
409.6
 21
420.05
 31
0.0
  0
LINE
  5
152
100
AcDbEntity
  8
LAY-3
  6
CONTINUOUS
 62
     3
100
AcDbLine
 10
410.1
 20
420.55
 30
0.0
 11
410.1
 21
418.55
 31
0.0
  0
LINE
  5
153
100
AcDbEntity
  8
LAY-3
  6
CONTINUOUS
 62
     3
100
AcDbLine
 10
409.6
 20
415.55
 30
0.0
 11
409.6
 21
417.05
 31
0.0
  0
LINE
  5
154
100
AcDbEntity
  8
LAY-3
  6
CONTINUOUS
 62
     3
100
AcDbLine
 10
410.1
 20
417.05
 30
0.0
 11
410.1
 21
415.05
 31
0.0
  0
LINE
  5
155
100
AcDbEntity
  8
LAY-3
  6
CONTINUOUS
 62
     3
100
AcDbLine
 10
437.1
 20
420.3
 30
0.0
 11
436.676697
 21
420.3
 31
0.0
  0
LINE
  5
156
100
AcDbEntity
  8
LAY-3
  6
CONTINUOUS
 62
     3
100
AcDbLine
 10
437.1
 20
415.3
 30
0.0
 11
436.676697
 21
415.3
 31
0.0
  0
LINE
  5
157
100
AcDbEntity
  8
LAY-3
  6
CONTINUOUS
 62
     3
100
AcDbLine
 10
410.1
 20
420.55
 30
0.0
 11
410.523303
 21
420.55
 31
0.0
  0
LINE
  5
158
100
AcDbEntity
  8
LAY-3
  6
CONTINUOUS
 62
     3
100
AcDbLine
 10
410.523303
 20
418.55
 30
0.0
 11
409.6
 21
418.55
 31
0.0
  0
LINE
  5
159
100
AcDbEntity
  8
LAY-3
  6
CONTINUOUS
 62
     3
100
AcDbLine
 10
410.523303
 20
417.05
 30
0.0
 11
409.6
 21
417.05
 31
0.0
  0
LINE
  5
15A
100
AcDbEntity
  8
LAY-3
  6
CONTINUOUS
 62
     3
100
AcDbLine
 10
410.1
 20
415.05
 30
0.0
 11
410.523303
 21
415.05
 31
0.0
  0
LINE
  5
15B
100
AcDbEntity
  8
LAY-3
  6
CONTINUOUS
 62
     3
100
AcDbLine
 10
436.676697
 20
423.3
 30
0.0
 11
410.523303
 21
423.3
 31
0.0
  0
LINE
  5
15C
100
AcDbEntity
  8
LAY-3
  6
CONTINUOUS
 62
     3
100
AcDbLine
 10
437.6
 20
412.8
 30
0.0
 11
436.676697
 21
412.8
 31
0.0
  0
LINE
  5
15D
100
AcDbEntity
  8
LAY-3
  6
CONTINUOUS
 62
     3
100
AcDbLine
 10
409.6
 20
412.8
 30
0.0
 11
410.523303
 21
412.8
 31
0.0
  0
LINE
  5
15E
100
AcDbEntity
  8
LAY-3
  6
CONTINUOUS
 62
     3
100
AcDbLine
 10
437.6
 20
415.8
 30
0.0
 11
437.6
 21
419.8
 31
0.0
  0
LINE
  5
15F
100
AcDbEntity
  8
LAY-3
  6
CONTINUOUS
 62
     3
100
AcDbLine
 10
409.6
 20
412.8
 30
0.0
 11
409.6
 21
305.3
 31
0.0
  0
LINE
  5
160
100
AcDbEntity
  8
LAY-3
  6
CONTINUOUS
 62
     3
100
AcDbLine
 10
437.6
 20
412.8
 30
0.0
 11
437.6
 21
273.3
 31
0.0
  0
LINE
  5
161
100
AcDbEntity
  8
LAY-3
  6
CONTINUOUS
 62
     3
100
AcDbLine
 10
409.6
 20
295.3
 30
0.0
 11
409.6
 21
273.3
 31
0.0
  0
LINE
  5
162
100
AcDbEntity
  8
LAY-3
  6
DASHED2
 62
     3
100
AcDbLine
 10
417.737353
 20
199.3
 30
0.0
 11
416.774977
 21
210.3
 31
0.0
  0
LINE
  5
163
100
AcDbEntity
  8
LAY-3
  6
DASHED2
 62
     3
100
AcDbLine
 10
429.462647
 20
199.3
 30
0.0
 11
430.512511
 21
211.3
 31
0.0
  0
LINE
  5
164
100
AcDbEntity
  8
LAY-3
  6
CONTINUOUS
 62
     3
100
AcDbLine
 10
430.425023
 20
210.3
 30
0.0
 11
430.568278
 21
211.937415
 31
0.0
  0
LINE
  5
165
100
AcDbEntity
  8
LAY-3
  6
CONTINUOUS
 62
     3
100
AcDbLine
 10
416.774977
 20
210.3
 30
0.0
 11
416.631722
 21
211.937415
 31
0.0
  0
LINE
  5
166
100
AcDbEntity
  8
LAY-3
  6
DASHED2
 62
     3
100
AcDbLine
 10
417.737353
 20
199.3
 30
0.0
 11
429.462647
 21
199.3
 31
0.0
  0
LINE
  5
167
100
AcDbEntity
  8
LAY-3
  6
CONTINUOUS
 62
     3
100
AcDbLine
 10
116.079474
 20
94.5
 30
0.0
 11
218.0
 21
94.5
 31
0.0
  0
ARC
  5
168
100
AcDbEntity
  8
LAY-3
  6
CONTINUOUS
 62
     3
100
AcDbCircle
 10
218.0
 20
96.5
 30
0.0
 40
2.0
100
AcDbArc
 50
270.0
 51
0.0
  0
LINE
  5
169
100
AcDbEntity
  8
LAY-3
  6
CONTINUOUS
 62
     3
100
AcDbLine
 10
116.079474
 20
119.5
 30
0.0
 11
218.0
 21
119.5
 31
0.0
  0
ARC
  5
16A
100
AcDbEntity
  8
LAY-3
  6
CONTINUOUS
 62
     3
100
AcDbCircle
 10
218.0
 20
117.5
 30
0.0
 40
2.0
100
AcDbArc
 50
0.0
 51
90.0
  0
ARC
  5
16B
100
AcDbEntity
  8
LAY-3
  6
CONTINUOUS
 62
     3
100
AcDbCircle
 10
218.0
 20
117.5
 30
0.0
 40
2.0
100
AcDbArc
 50
0.0
 51
90.0
  0
CIRCLE
  5
16C
100
AcDbEntity
  8
LAY-3
  6
CONTINUOUS
 62
     3
100
AcDbCircle
 10
110.0
 20
107.0
 30
0.0
 40
12.4
  0
LINE
  5
16D
100
AcDbEntity
  8
LAY-3
  6
CONTINUOUS
 62
     3
100
AcDbLine
 10
112.75
 20
93.5
 30
0.0
 11
112.25
 21
93.0
 31
0.0
  0
LINE
  5
16E
100
AcDbEntity
  8
LAY-3
  6
CONTINUOUS
 62
     3
100
AcDbLine
 10
108.0
 20
121.0
 30
0.0
 11
107.5
 21
120.5
 31
0.0
  0
LINE
  5
16F
100
AcDbEntity
  8
LAY-3
  6
CONTINUOUS
 62
     3
100
AcDbLine
 10
112.0
 20
121.0
 30
0.0
 11
108.0
 21
121.0
 31
0.0
  0
LINE
  5
170
100
AcDbEntity
  8
LAY-3
  6
CONTINUOUS
 62
     3
100
AcDbLine
 10
112.5
 20
120.5
 30
0.0
 11
112.0
 21
121.0
 31
0.0
  0
LINE
  5
171
100
AcDbEntity
  8
LAY-3
  6
CONTINUOUS
 62
     3
100
AcDbLine
 10
112.5
 20
120.5
 30
0.0
 11
107.5
 21
120.5
 31
0.0
  0
LINE
  5
172
100
AcDbEntity
  8
LAY-3
  6
CONTINUOUS
 62
     3
100
AcDbLine
 10
107.75
 20
93.0
 30
0.0
 11
109.25
 21
93.0
 31
0.0
  0
LINE
  5
173
100
AcDbEntity
  8
LAY-3
  6
CONTINUOUS
 62
     3
100
AcDbLine
 10
107.25
 20
93.5
 30
0.0
 11
107.75
 21
93.0
 31
0.0
  0
LINE
  5
174
100
AcDbEntity
  8
LAY-3
  6
CONTINUOUS
 62
     3
100
AcDbLine
 10
112.25
 20
93.0
 30
0.0
 11
110.75
 21
93.0
 31
0.0
  0
LINE
  5
175
100
AcDbEntity
  8
LAY-3
  6
CONTINUOUS
 62
     3
100
AcDbLine
 10
112.0
 20
121.0
 30
0.0
 11
108.0
 21
121.0
 31
0.0
  0
LINE
  5
176
100
AcDbEntity
  8
LAY-3
  6
CONTINUOUS
 62
     3
100
AcDbLine
 10
107.5
 20
120.5
 30
0.0
 11
107.5
 21
119.145369
 31
0.0
  0
LINE
  5
177
100
AcDbEntity
  8
LAY-3
  6
CONTINUOUS
 62
     3
100
AcDbLine
 10
112.5
 20
120.5
 30
0.0
 11
112.5
 21
119.145369
 31
0.0
  0
LINE
  5
178
100
AcDbEntity
  8
LAY-3
  6
CONTINUOUS
 62
     3
100
AcDbLine
 10
107.25
 20
93.5
 30
0.0
 11
107.25
 21
94.908784
 31
0.0
  0
LINE
  5
179
100
AcDbEntity
  8
LAY-3
  6
CONTINUOUS
 62
     3
100
AcDbLine
 10
112.75
 20
93.5
 30
0.0
 11
112.75
 21
94.908784
 31
0.0
  0
ARC
  5
17A
100
AcDbEntity
  8
LAY-3
  6
CONTINUOUS
 62
     3
100
AcDbCircle
 10
110.0
 20
107.0
 30
0.0
 40
14.0
100
AcDbArc
 50
266.929113
 51
273.070887
  0
ARC
  5
17B
100
AcDbEntity
  8
LAY-3
  6
CONTINUOUS
 62
     3
100
AcDbCircle
 10
110.0
 20
107.0
 30
0.0
 40
14.0
100
AcDbArc
 50
280.159836
 51
81.087147
  0
ARC
  5
17C
100
AcDbEntity
  8
LAY-3
  6
CONTINUOUS
 62
     3
100
AcDbCircle
 10
110.0
 20
107.0
 30
0.0
 40
14.0
100
AcDbArc
 50
98.912853
 51
259.840164
  0
LINE
  5
17D
100
AcDbEntity
  8
LAY-3
  6
CONTINUOUS
 62
     3
100
AcDbLine
 10
109.25
 20
93.020104
 30
0.0
 11
109.25
 21
93.0
 31
0.0
  0
LINE
  5
17E
100
AcDbEntity
  8
LAY-3
  6
CONTINUOUS
 62
     3
100
AcDbLine
 10
110.75
 20
93.020104
 30
0.0
 11
110.75
 21
93.0
 31
0.0
  0
LINE
  5
17F
100
AcDbEntity
  8
LAY-3
  6
CONTINUOUS
 62
     3
100
AcDbLine
 10
107.25
 20
93.5
 30
0.0
 11
112.75
 21
93.5
 31
0.0
  0
LINE
  5
180
100
AcDbEntity
  8
LAY-3
  6
CONTINUOUS
 62
     3
100
AcDbLine
 10
121.313708
 20
115.485281
 30
0.0
 11
118.485281
 21
118.313708
 31
0.0
  0
LINE
  5
181
100
AcDbEntity
  8
LAY-3
  6
CONTINUOUS
 62
     3
100
AcDbLine
 10
122.374369
 20
115.838835
 30
0.0
 11
121.667262
 21
115.131728
 31
0.0
  0
LINE
  5
182
100
AcDbEntity
  8
LAY-3
  6
CONTINUOUS
 62
     3
100
AcDbLine
 10
118.838835
 20
119.374369
 30
0.0
 11
118.131728
 21
118.667262
 31
0.0
  0
LINE
  5
183
100
AcDbEntity
  8
LAY-3
  6
CONTINUOUS
 62
     3
100
AcDbLine
 10
122.374369
 20
115.838835
 30
0.0
 11
118.838835
 21
119.374369
 31
0.0
  0
LINE
  5
184
100
AcDbEntity
  8
LAY-3
  6
CONTINUOUS
 62
     3
100
AcDbLine
 10
121.667262
 20
115.131728
 30
0.0
 11
118.131728
 21
118.667262
 31
0.0
  0
LINE
  5
185
100
AcDbEntity
  8
LAY-3
  6
CONTINUOUS
 62
     3
100
AcDbLine
 10
101.514719
 20
118.313708
 30
0.0
 11
98.686292
 21
115.485281
 31
0.0
  0
LINE
  5
186
100
AcDbEntity
  8
LAY-3
  6
CONTINUOUS
 62
     3
100
AcDbLine
 10
101.161165
 20
119.374369
 30
0.0
 11
101.868272
 21
118.667262
 31
0.0
  0
LINE
  5
187
100
AcDbEntity
  8
LAY-3
  6
CONTINUOUS
 62
     3
100
AcDbLine
 10
97.625631
 20
115.838835
 30
0.0
 11
98.332738
 21
115.131728
 31
0.0
  0
LINE
  5
188
100
AcDbEntity
  8
LAY-3
  6
CONTINUOUS
 62
     3
100
AcDbLine
 10
101.161165
 20
119.374369
 30
0.0
 11
97.625631
 21
115.838835
 31
0.0
  0
LINE
  5
189
100
AcDbEntity
  8
LAY-3
  6
CONTINUOUS
 62
     3
100
AcDbLine
 10
101.868272
 20
118.667262
 30
0.0
 11
98.332738
 21
115.131728
 31
0.0
  0
LINE
  5
18A
100
AcDbEntity
  8
LAY-3
  6
CONTINUOUS
 62
     3
100
AcDbLine
 10
118.485281
 20
95.686292
 30
0.0
 11
121.313708
 21
98.514719
 31
0.0
  0
LINE
  5
18B
100
AcDbEntity
  8
LAY-3
  6
CONTINUOUS
 62
     3
100
AcDbLine
 10
118.838835
 20
94.625631
 30
0.0
 11
118.131728
 21
95.332738
 31
0.0
  0
LINE
  5
18C
100
AcDbEntity
  8
LAY-3
  6
CONTINUOUS
 62
     3
100
AcDbLine
 10
122.374369
 20
98.161165
 30
0.0
 11
121.667262
 21
98.868272
 31
0.0
  0
LINE
  5
18D
100
AcDbEntity
  8
LAY-3
  6
CONTINUOUS
 62
     3
100
AcDbLine
 10
118.838835
 20
94.625631
 30
0.0
 11
122.374369
 21
98.161165
 31
0.0
  0
LINE
  5
18E
100
AcDbEntity
  8
LAY-3
  6
CONTINUOUS
 62
     3
100
AcDbLine
 10
118.131728
 20
95.332738
 30
0.0
 11
121.667262
 21
98.868272
 31
0.0
  0
LINE
  5
18F
100
AcDbEntity
  8
LAY-3
  6
CONTINUOUS
 62
     3
100
AcDbLine
 10
98.686292
 20
98.514719
 30
0.0
 11
101.514719
 21
95.686292
 31
0.0
  0
LINE
  5
190
100
AcDbEntity
  8
LAY-3
  6
CONTINUOUS
 62
     3
100
AcDbLine
 10
97.625631
 20
98.161165
 30
0.0
 11
98.332738
 21
98.868272
 31
0.0
  0
LINE
  5
191
100
AcDbEntity
  8
LAY-3
  6
CONTINUOUS
 62
     3
100
AcDbLine
 10
101.161165
 20
94.625631
 30
0.0
 11
101.868272
 21
95.332738
 31
0.0
  0
LINE
  5
192
100
AcDbEntity
  8
LAY-3
  6
CONTINUOUS
 62
     3
100
AcDbLine
 10
97.625631
 20
98.161165
 30
0.0
 11
101.161165
 21
94.625631
 31
0.0
  0
LINE
  5
193
100
AcDbEntity
  8
LAY-3
  6
CONTINUOUS
 62
     3
100
AcDbLine
 10
98.332738
 20
98.868272
 30
0.0
 11
101.868272
 21
95.332738
 31
0.0
  0
LINE
  5
194
100
AcDbEntity
  8
LAY-3
  6
CONTINUOUS
 62
     3
100
AcDbLine
 10
99.5
 20
225.3
 30
0.0
 11
120.5
 21
225.3
 31
0.0
  0
LINE
  5
195
100
AcDbEntity
  8
LAY-3
  6
CONTINUOUS
 62
     3
100
AcDbLine
 10
103.577384
 20
212.3
 30
0.0
 11
116.422616
 21
212.3
 31
0.0
  0
ARC
  5
196
100
AcDbEntity
  8
LAY-3
  6
CONTINUOUS
 62
     3
100
AcDbCircle
 10
118.5
 20
211.885786
 30
0.0
 40
1.0
100
AcDbArc
 50
135.0
 51
180.0
  0
LINE
  5
197
100
AcDbEntity
  8
LAY-3
  6
CONTINUOUS
 62
     3
100
AcDbLine
 10
120.207107
 20
215.007107
 30
0.0
 11
117.792893
 21
212.592893
 31
0.0
  0
LINE
  5
198
100
AcDbEntity
  8
LAY-3
  6
CONTINUOUS
 62
     3
100
AcDbLine
 10
120.5
 20
215.714214
 30
0.0
 11
120.5
 21
225.3
 31
0.0
  0
ARC
  5
199
100
AcDbEntity
  8
LAY-3
  6
CONTINUOUS
 62
     3
100
AcDbCircle
 10
119.5
 20
215.714214
 30
0.0
 40
1.0
100
AcDbArc
 50
315.0
 51
0.0
  0
ARC
  5
19A
100
AcDbEntity
  8
LAY-3
  6
CONTINUOUS
 62
     3
100
AcDbCircle
 10
99.5
 20
211.885786
 30
0.0
 40
1.0
100
AcDbArc
 50
0.0
 51
45.0
  0
LINE
  5
19B
100
AcDbEntity
  8
LAY-3
  6
CONTINUOUS
 62
     3
100
AcDbLine
 10
99.792893
 20
213.007107
 30
0.0
 11
100.207107
 21
212.592893
 31
0.0
  0
LINE
  5
19C
100
AcDbEntity
  8
LAY-3
  6
CONTINUOUS
 62
     3
100
AcDbLine
 10
99.5
 20
213.714214
 30
0.0
 11
99.5
 21
225.3
 31
0.0
  0
ARC
  5
19D
100
AcDbEntity
  8
LAY-3
  6
CONTINUOUS
 62
     3
100
AcDbCircle
 10
100.5
 20
213.714214
 30
0.0
 40
1.0
100
AcDbArc
 50
180.0
 51
225.0
  0
ARC
  5
19E
100
AcDbEntity
  8
LAY-3
  6
CONTINUOUS
 62
     3
100
AcDbCircle
 10
110.0
 20
208.157143
 30
0.0
 40
7.642857
100
AcDbArc
 50
32.823715
 51
147.176285
  0
LINE
  5
19F
100
AcDbEntity
  8
LAY-3
  6
CONTINUOUS
 62
     3
100
AcDbLine
 10
119.0
 20
226.3
 30
0.0
 11
119.0
 21
225.3
 31
0.0
  0
LINE
  5
1A0
100
AcDbEntity
  8
LAY-3
  6
CONTINUOUS
 62
     3
100
AcDbLine
 10
101.0
 20
226.3
 30
0.0
 11
101.0
 21
225.3
 31
0.0
  0
LINE
  5
1A1
100
AcDbEntity
  8
LAY-3
  6
CONTINUOUS
 62
     3
100
AcDbLine
 10
117.5
 20
211.3
 30
0.0
 11
117.5
 21
211.885786
 31
0.0
  0
LINE
  5
1A2
100
AcDbEntity
  8
LAY-3
  6
CONTINUOUS
 62
     3
100
AcDbLine
 10
116.506827
 20
211.3
 30
0.0
 11
116.422616
 21
212.3
 31
0.0
  0
LINE
  5
1A3
100
AcDbEntity
  8
LAY-3
  6
CONTINUOUS
 62
     3
100
AcDbLine
 10
100.5
 20
211.3
 30
0.0
 11
100.5
 21
211.885786
 31
0.0
  0
LINE
  5
1A4
100
AcDbEntity
  8
LAY-3
  6
CONTINUOUS
 62
     3
100
AcDbLine
 10
103.496412
 20
211.3
 30
0.0
 11
103.577384
 21
212.3
 31
0.0
  0
ARC
  5
1A5
100
AcDbEntity
  8
LAY-3
  6
CONTINUOUS
 62
     3
100
AcDbCircle
 10
218.0
 20
232.3
 30
0.0
 40
2.0
100
AcDbArc
 50
0.0
 51
90.0
  0
LINE
  5
1A6
100
AcDbEntity
  8
LAY-3
  6
CONTINUOUS
 62
     3
100
AcDbLine
 10
220.0
 20
232.3
 30
0.0
 11
220.0
 21
228.3
 31
0.0
  0
ARC
  5
1A7
100
AcDbEntity
  8
LAY-3
  6
CONTINUOUS
 62
     3
100
AcDbCircle
 10
218.0
 20
228.3
 30
0.0
 40
2.0
100
AcDbArc
 50
270.0
 51
0.0
  0
LINE
  5
1A8
100
AcDbEntity
  8
LAY-3
  6
CONTINUOUS
 62
     3
100
AcDbLine
 10
218.0
 20
226.3
 30
0.0
 11
98.1
 21
226.3
 31
0.0
  0
LINE
  5
1A9
100
AcDbEntity
  8
LAY-3
  6
CONTINUOUS
 62
     3
100
AcDbLine
 10
96.1
 20
236.8
 30
0.0
 11
96.1
 21
228.3
 31
0.0
  0
ARC
  5
1AA
100
AcDbEntity
  8
LAY-3
  6
CONTINUOUS
 62
     3
100
AcDbCircle
 10
98.1
 20
228.3
 30
0.0
 40
2.0
100
AcDbArc
 50
180.0
 51
270.0
  0
LINE
  5
1AB
100
AcDbEntity
  8
LAY-3
  6
CONTINUOUS
 62
     3
100
AcDbLine
 10
218.0
 20
234.3
 30
0.0
 11
125.9
 21
234.3
 31
0.0
  0
ARC
  5
1AC
100
AcDbEntity
  8
LAY-3
  6
CONTINUOUS
 62
     3
100
AcDbCircle
 10
125.9
 20
236.3
 30
0.0
 40
2.0
100
AcDbArc
 50
180.0
 51
270.0
  0
LINE
  5
1AD
100
AcDbEntity
  8
LAY-3
  6
CONTINUOUS
 62
     3
100
AcDbLine
 10
123.902187
 20
236.2065
 30
0.0
 11
123.87441
 21
236.8
 31
0.0
  0
LINE
  5
1AE
100
AcDbEntity
  8
LAY-3
  6
CONTINUOUS
 62
     3
100
AcDbLine
 10
96.0
 20
236.8
 30
0.0
 11
124.0
 21
236.8
 31
0.0
  0
LINE
  5
1AF
100
AcDbEntity
  8
LAY-3
  6
CONTINUOUS
 62
     3
100
AcDbLine
 10
96.0
 20
268.3
 30
0.0
 11
96.0
 21
236.8
 31
0.0
  0
LINE
  5
1B0
100
AcDbEntity
  8
LAY-3
  6
CONTINUOUS
 62
     3
100
AcDbLine
 10
124.0
 20
268.3
 30
0.0
 11
124.0
 21
236.8
 31
0.0
  0
ARC
  5
1B1
100
AcDbEntity
  8
LAY-3
  6
CONTINUOUS
 62
     3
100
AcDbCircle
 10
104.0
 20
422.3
 30
0.0
 40
1.0
100
AcDbArc
 50
0.0
 51
90.0
  0
ARC
  5
1B2
100
AcDbEntity
  8
LAY-3
  6
CONTINUOUS
 62
     3
100
AcDbCircle
 10
116.0
 20
422.3
 30
0.0
 40
1.0
100
AcDbArc
 50
90.0
 51
180.0
  0
LINE
  5
1B3
100
AcDbEntity
  8
LAY-3
  6
CONTINUOUS
 62
     3
100
AcDbLine
 10
114.422568
 20
302.55
 30
0.0
 11
114.42257
 21
302.55
 31
0.0
  0
CIRCLE
  5
1B4
100
AcDbEntity
  8
LAY-3
  6
CONTINUOUS
 62
     3
100
AcDbCircle
 10
116.749027
 20
300.3
 30
0.0
 40
2.25
  0
ARC
  5
1B5
100
AcDbEntity
  8
LAY-3
  6
CONTINUOUS
 62
     3
100
AcDbCircle
 10
116.030285
 20
300.3
 30
0.0
 40
3.03125
100
AcDbArc
 50
132.075022
 51
227.92496
  0
LINE
  5
1B6
100
AcDbEntity
  8
LAY-3
  6
CONTINUOUS
 62
     3
100
AcDbLine
 10
116.749027
 20
302.55
 30
0.0
 11
113.999035
 21
302.55
 31
0.0
  0
LINE
  5
1B7
100
AcDbEntity
  8
LAY-3
  6
CONTINUOUS
 62
     3
100
AcDbLine
 10
116.749027
 20
298.05
 30
0.0
 11
113.999035
 21
298.05
 31
0.0
  0
ARC
  5
1B8
100
AcDbEntity
  8
LAY-3
  6
CONTINUOUS
 62
     3
100
AcDbCircle
 10
104.64
 20
300.3
 30
0.0
 40
2.437473
100
AcDbArc
 50
292.618255
 51
67.381595
  0
ARC
  5
1B9
100
AcDbEntity
  8
LAY-3
  6
CONTINUOUS
 62
     3
100
AcDbCircle
 10
105.842927
 20
300.3
 30
0.0
 40
2.26561
100
AcDbArc
 50
96.729657
 51
263.270153
  0
CIRCLE
  5
1BA
100
AcDbEntity
  8
LAY-3
  6
CONTINUOUS
 62
     3
100
AcDbCircle
 10
110.0
 20
417.8
 30
0.0
 40
2.75
  0
LINE
  5
1BB
100
AcDbEntity
  8
LAY-3
  6
CONTINUOUS
 62
     3
100
AcDbLine
 10
112.645751
 20
418.55
 30
0.0
 11
107.354249
 21
418.55
 31
0.0
  0
LINE
  5
1BC
100
AcDbEntity
  8
LAY-3
  6
CONTINUOUS
 62
     3
100
AcDbLine
 10
112.645751
 20
417.05
 30
0.0
 11
107.354249
 21
417.05
 31
0.0
  0
LINE
  5
1BD
100
AcDbEntity
  8
LAY-3
  6
CONTINUOUS
 62
     3
100
AcDbLine
 10
124.0
 20
423.3
 30
0.0
 11
96.0
 21
423.3
 31
0.0
  0
LINE
  5
1BE
100
AcDbEntity
  8
LAY-3
  6
CONTINUOUS
 62
     3
100
AcDbLine
 10
101.000973
 20
295.3
 30
0.0
 11
118.999027
 21
295.3
 31
0.0
  0
LINE
  5
1BF
100
AcDbEntity
  8
LAY-3
  6
CONTINUOUS
 62
     3
100
AcDbLine
 10
101.000973
 20
305.3
 30
0.0
 11
118.999027
 21
305.3
 31
0.0
  0
LINE
  5
1C0
100
AcDbEntity
  8
LAY-3
  6
CONTINUOUS
 62
     3
100
AcDbLine
 10
101.000973
 20
295.3
 30
0.0
 11
101.000973
 21
305.3
 31
0.0
  0
LINE
  5
1C1
100
AcDbEntity
  8
LAY-3
  6
CONTINUOUS
 62
     3
100
AcDbLine
 10
118.999027
 20
295.3
 30
0.0
 11
118.999027
 21
305.3
 31
0.0
  0
ARC
  5
1C2
100
AcDbEntity
  8
LAY-3
  6
CONTINUOUS
 62
     3
100
AcDbCircle
 10
110.0
 20
417.8
 30
0.0
 40
5.0
100
AcDbArc
 50
180.0
 51
0.0
  0
LINE
  5
1C3
100
AcDbEntity
  8
LAY-3
  6
CONTINUOUS
 62
     3
100
AcDbLine
 10
105.0
 20
422.3
 30
0.0
 11
105.0
 21
417.8
 31
0.0
  0
LINE
  5
1C4
100
AcDbEntity
  8
LAY-3
  6
CONTINUOUS
 62
     3
100
AcDbLine
 10
115.0
 20
422.3
 30
0.0
 11
115.0
 21
417.8
 31
0.0
  0
LINE
  5
1C5
100
AcDbEntity
  8
LAY-3
  6
CONTINUOUS
 62
     3
100
AcDbLine
 10
117.970566
 20
295.3
 30
0.0
 11
117.970566
 21
298.410466
 31
0.0
  0
LINE
  5
1C6
100
AcDbEntity
  8
LAY-3
  6
CONTINUOUS
 62
     3
100
AcDbLine
 10
117.970566
 20
302.189534
 30
0.0
 11
117.970566
 21
305.3
 31
0.0
  0
LINE
  5
1C7
100
AcDbEntity
  8
LAY-3
  6
CONTINUOUS
 62
     3
100
AcDbLine
 10
102.029434
 20
295.3
 30
0.0
 11
102.029434
 21
305.3
 31
0.0
  0
CIRCLE
  5
1C8
100
AcDbEntity
  8
LAY-3
  6
CONTINUOUS
 62
     3
100
AcDbCircle
 10
110.0
 20
417.8
 30
0.0
 40
2.75
  0
LINE
  5
1C9
100
AcDbEntity
  8
LAY-3
  6
CONTINUOUS
 62
     3
100
AcDbLine
 10
96.0
 20
423.3
 30
0.0
 11
96.0
 21
273.3
 31
0.0
  0
LINE
  5
1CA
100
AcDbEntity
  8
LAY-3
  6
CONTINUOUS
 62
     3
100
AcDbLine
 10
124.0
 20
423.3
 30
0.0
 11
124.0
 21
273.3
 31
0.0
  0
ARC
  5
1CB
100
AcDbEntity
  8
LAY-3
  6
CONTINUOUS
 62
     3
100
AcDbCircle
 10
110.0
 20
417.8
 30
0.0
 40
2.25
100
AcDbArc
 50
199.471221
 51
340.528779
  0
ARC
  5
1CC
100
AcDbEntity
  8
LAY-3
  6
CONTINUOUS
 62
     3
100
AcDbCircle
 10
110.0
 20
417.8
 30
0.0
 40
2.25
100
AcDbArc
 50
19.471221
 51
160.528779
  0
CIRCLE
  5
1CD
100
AcDbEntity
  8
LAY-3
  6
CONTINUOUS
 62
     3
100
AcDbCircle
 10
138.0
 20
101.0
 30
0.0
 40
3.55
  0
CIRCLE
  5
1CE
100
AcDbEntity
  8
LAY-3
  6
CONTINUOUS
 62
     3
100
AcDbCircle
 10
186.0
 20
101.0
 30
0.0
 40
3.55
  0
CIRCLE
  5
1CF
100
AcDbEntity
  8
LAY-3
  6
DASHED2
 62
     3
100
AcDbCircle
 10
138.0
 20
101.0
 30
0.0
 40
6.1
  0
CIRCLE
  5
1D0
100
AcDbEntity
  8
LAY-3
  6
DASHED2
 62
     3
100
AcDbCircle
 10
186.0
 20
101.0
 30
0.0
 40
6.1
  0
CIRCLE
  5
1D1
100
AcDbEntity
  8
LAY-3
  6
CONTINUOUS
 62
     3
100
AcDbCircle
 10
162.0
 20
113.0
 30
0.0
 40
3.55
  0
CIRCLE
  5
1D2
100
AcDbEntity
  8
LAY-3
  6
DASHED2
 62
     3
100
AcDbCircle
 10
162.0
 20
113.0
 30
0.0
 40
6.1
  0
CIRCLE
  5
1D3
100
AcDbEntity
  8
LAY-3
  6
CONTINUOUS
 62
     3
100
AcDbCircle
 10
210.0
 20
113.0
 30
0.0
 40
3.55
  0
CIRCLE
  5
1D4
100
AcDbEntity
  8
LAY-3
  6
DASHED2
 62
     3
100
AcDbCircle
 10
210.0
 20
113.0
 30
0.0
 40
6.1
  0
LINE
  5
1D5
100
AcDbEntity
  8
LAY-3
  6
CONTINUOUS
 62
     3
100
AcDbLine
 10
220.0
 20
96.5
 30
0.0
 11
220.0
 21
117.5
 31
0.0
  0
LINE
  5
1D6
100
AcDbEntity
  8
LAY-3
  6
CONTINUOUS
 62
     3
100
AcDbLine
 10
98.0
 20
423.3
 30
0.0
 11
122.0
 21
423.3
 31
0.0
  0
LINE
  5
1D7
100
AcDbEntity
  8
LAY-3
  6
DASHED2
 62
     3
100
AcDbLine
 10
116.0
 20
423.3
 30
0.0
 11
104.0
 21
423.3
 31
0.0
  0
LINE
  5
1D8
100
AcDbEntity
  8
LAY-3
  6
CONTINUOUS
 62
     3
100
AcDbLine
 10
98.0
 20
424.8
 30
0.0
 11
122.0
 21
424.8
 31
0.0
  0
LINE
  5
1D9
100
AcDbEntity
  8
LAY-3
  6
CONTINUOUS
 62
     3
100
AcDbLine
 10
122.0
 20
424.8
 30
0.0
 11
122.0
 21
423.3
 31
0.0
  0
LINE
  5
1DA
100
AcDbEntity
  8
LAY-3
  6
CONTINUOUS
 62
     3
100
AcDbLine
 10
98.0
 20
423.3
 30
0.0
 11
98.0
 21
424.8
 31
0.0
  0
LINE
  5
1DB
100
AcDbEntity
  8
LAY-3
  6
CONTINUOUS
 62
     3
100
AcDbLine
 10
411.59997
 20
423.3
 30
0.0
 11
435.59997
 21
423.3
 31
0.0
  0
LINE
  5
1DC
100
AcDbEntity
  8
LAY-3
  6
DASHED2
 62
     3
100
AcDbLine
 10
429.59997
 20
423.3
 30
0.0
 11
417.59997
 21
423.3
 31
0.0
  0
LINE
  5
1DD
100
AcDbEntity
  8
LAY-3
  6
CONTINUOUS
 62
     3
100
AcDbLine
 10
411.59997
 20
424.8
 30
0.0
 11
435.59997
 21
424.8
 31
0.0
  0
LINE
  5
1DE
100
AcDbEntity
  8
LAY-3
  6
CONTINUOUS
 62
     3
100
AcDbLine
 10
435.59997
 20
424.8
 30
0.0
 11
435.59997
 21
423.3
 31
0.0
  0
LINE
  5
1DF
100
AcDbEntity
  8
LAY-3
  6
CONTINUOUS
 62
     3
100
AcDbLine
 10
411.59997
 20
423.3
 30
0.0
 11
411.59997
 21
424.8
 31
0.0
  0
CIRCLE
  5
1E0
100
AcDbEntity
  8
LAY-3
  6
CONTINUOUS
 62
     3
100
AcDbCircle
 10
110.0
 20
107.0
 30
0.0
 40
12.0
  0
ARC
  5
1E1
100
AcDbEntity
  8
LAY-4
  6
CONTINUOUS
 62
     3
100
AcDbCircle
 10
72.9
 20
191.3
 30
0.0
 40
2.0
100
AcDbArc
 50
180.0
 51
270.0
  0
LINE
  5
1E2
100
AcDbEntity
  8
LAY-4
  6
CONTINUOUS
 62
     3
100
AcDbLine
 10
70.9
 20
248.3
 30
0.0
 11
70.9
 21
191.3
 31
0.0
  0
ARC
  5
1E3
100
AcDbEntity
  8
LAY-4
  6
CONTINUOUS
 62
     3
100
AcDbCircle
 10
70.9
 20
189.3
 30
0.0
 40
6.0
100
AcDbArc
 50
180.0
 51
270.0
  0
LINE
  5
1E4
100
AcDbEntity
  8
LAY-4
  6
CONTINUOUS
 62
     3
100
AcDbLine
 10
64.9
 20
248.3
 30
0.0
 11
64.9
 21
189.3
 31
0.0
  0
LINE
  5
1E5
100
AcDbEntity
  8
LAY-4
  6
CONTINUOUS
 62
     3
100
AcDbLine
 10
70.9
 20
248.3
 30
0.0
 11
64.9
 21
248.3
 31
0.0
  0
LINE
  5
1E6
100
AcDbEntity
  8
LAY-4
  6
CONTINUOUS
 62
     3
100
AcDbLine
 10
407.6
 20
189.3
 30
0.0
 11
439.6
 21
189.3
 31
0.0
  0
LINE
  5
1E7
100
AcDbEntity
  8
LAY-4
  6
CONTINUOUS
 62
     3
100
AcDbLine
 10
407.6
 20
210.3
 30
0.0
 11
439.6
 21
210.3
 31
0.0
  0
LINE
  5
1E8
100
AcDbEntity
  8
LAY-4
  6
CONTINUOUS
 62
     3
100
AcDbLine
 10
445.6
 20
189.3
 30
0.0
 11
401.6
 21
189.3
 31
0.0
  0
LINE
  5
1E9
100
AcDbEntity
  8
LAY-4
  6
CONTINUOUS
 62
     3
100
AcDbLine
 10
401.6
 20
183.3
 30
0.0
 11
445.6
 21
183.3
 31
0.0
  0
ARC
  5
1EA
100
AcDbEntity
  8
LAY-4
  6
CONTINUOUS
 62
     3
100
AcDbCircle
 10
440.6
 20
243.3
 30
0.0
 40
5.0
100
AcDbArc
 50
0.0
 51
90.0
  0
ARC
  5
1EB
100
AcDbEntity
  8
LAY-4
  6
CONTINUOUS
 62
     3
100
AcDbCircle
 10
406.6
 20
243.3
 30
0.0
 40
5.0
100
AcDbArc
 50
90.0
 51
180.0
  0
LINE
  5
1EC
100
AcDbEntity
  8
LAY-4
  6
CONTINUOUS
 62
     3
100
AcDbLine
 10
442.6
 20
183.3
 30
0.0
 11
442.6
 21
182.3
 31
0.0
  0
LINE
  5
1ED
100
AcDbEntity
  8
LAY-4
  6
CONTINUOUS
 62
     3
100
AcDbLine
 10
404.6
 20
183.3
 30
0.0
 11
404.6
 21
182.3
 31
0.0
  0
LINE
  5
1EE
100
AcDbEntity
  8
LAY-4
  6
CONTINUOUS
 62
     3
100
AcDbLine
 10
404.6
 20
182.3
 30
0.0
 11
442.6
 21
182.3
 31
0.0
  0
LINE
  5
1EF
100
AcDbEntity
  8
LAY-4
  6
CONTINUOUS
 62
     3
100
AcDbLine
 10
441.6
 20
211.3
 30
0.0
 11
441.6
 21
210.3
 31
0.0
  0
LINE
  5
1F0
100
AcDbEntity
  8
LAY-4
  6
CONTINUOUS
 62
     3
100
AcDbLine
 10
441.6
 20
211.3
 30
0.0
 11
405.6
 21
211.3
 31
0.0
  0
LINE
  5
1F1
100
AcDbEntity
  8
LAY-4
  6
CONTINUOUS
 62
     3
100
AcDbLine
 10
405.6
 20
211.3
 30
0.0
 11
405.6
 21
210.3
 31
0.0
  0
LINE
  5
1F2
100
AcDbEntity
  8
LAY-4
  6
CONTINUOUS
 62
     3
100
AcDbLine
 10
441.6
 20
210.3
 30
0.0
 11
405.6
 21
210.3
 31
0.0
  0
LINE
  5
1F3
100
AcDbEntity
  8
LAY-4
  6
CONTINUOUS
 62
     3
100
AcDbLine
 10
426.6
 20
177.15
 30
0.0
 11
420.6
 21
177.15
 31
0.0
  0
LINE
  5
1F4
100
AcDbEntity
  8
LAY-4
  6
CONTINUOUS
 62
     3
100
AcDbLine
 10
426.6
 20
180.8
 30
0.0
 11
426.6
 21
177.15
 31
0.0
  0
LINE
  5
1F5
100
AcDbEntity
  8
LAY-4
  6
CONTINUOUS
 62
     3
100
AcDbLine
 10
431.6
 20
182.3
 30
0.0
 11
431.6
 21
181.9
 31
0.0
  0
LINE
  5
1F6
100
AcDbEntity
  8
LAY-4
  6
CONTINUOUS
 62
     3
100
AcDbLine
 10
428.6
 20
181.9
 30
0.0
 11
426.6
 21
180.8
 31
0.0
  0
LINE
  5
1F7
100
AcDbEntity
  8
LAY-4
  6
CONTINUOUS
 62
     3
100
AcDbLine
 10
428.6
 20
181.9
 30
0.0
 11
431.6
 21
181.9
 31
0.0
  0
LINE
  5
1F8
100
AcDbEntity
  8
LAY-4
  6
CONTINUOUS
 62
     3
100
AcDbLine
 10
418.6
 20
181.9
 30
0.0
 11
420.6
 21
180.8
 31
0.0
  0
LINE
  5
1F9
100
AcDbEntity
  8
LAY-4
  6
CONTINUOUS
 62
     3
100
AcDbLine
 10
415.6
 20
182.3
 30
0.0
 11
415.6
 21
181.9
 31
0.0
  0
LINE
  5
1FA
100
AcDbEntity
  8
LAY-4
  6
CONTINUOUS
 62
     3
100
AcDbLine
 10
415.6
 20
181.9
 30
0.0
 11
418.6
 21
181.9
 31
0.0
  0
LINE
  5
1FB
100
AcDbEntity
  8
LAY-4
  6
CONTINUOUS
 62
     3
100
AcDbLine
 10
426.6
 20
180.8
 30
0.0
 11
420.6
 21
180.8
 31
0.0
  0
LINE
  5
1FC
100
AcDbEntity
  8
LAY-4
  6
CONTINUOUS
 62
     3
100
AcDbLine
 10
406.6
 20
248.3
 30
0.0
 11
409.6
 21
248.3
 31
0.0
  0
LINE
  5
1FD
100
AcDbEntity
  8
LAY-4
  6
CONTINUOUS
 62
     3
100
AcDbLine
 10
445.6
 20
243.3
 30
0.0
 11
445.6
 21
194.3
 31
0.0
  0
LINE
  5
1FE
100
AcDbEntity
  8
LAY-4
  6
CONTINUOUS
 62
     3
100
AcDbLine
 10
439.6
 20
210.3
 30
0.0
 11
439.6
 21
194.3
 31
0.0
  0
LINE
  5
1FF
100
AcDbEntity
  8
LAY-4
  6
CONTINUOUS
 62
     3
100
AcDbLine
 10
407.6
 20
210.3
 30
0.0
 11
407.6
 21
194.3
 31
0.0
  0
LINE
  5
200
100
AcDbEntity
  8
LAY-4
  6
CONTINUOUS
 62
     3
100
AcDbLine
 10
401.6
 20
243.3
 30
0.0
 11
401.6
 21
194.3
 31
0.0
  0
LINE
  5
201
100
AcDbEntity
  8
LAY-4
  6
CONTINUOUS
 62
     3
100
AcDbLine
 10
437.6
 20
248.3
 30
0.0
 11
440.6
 21
248.3
 31
0.0
  0
LINE
  5
202
100
AcDbEntity
  8
LAY-4
  6
DASHED2
 62
     3
100
AcDbLine
 10
409.6
 20
248.3
 30
0.0
 11
437.6
 21
248.3
 31
0.0
  0
LINE
  5
203
100
AcDbEntity
  8
LAY-4
  6
CONTINUOUS
 62
     3
100
AcDbLine
 10
420.6
 20
180.8
 30
0.0
 11
420.6
 21
177.15
 31
0.0
  0
LINE
  5
204
100
AcDbEntity
  8
LAY-4
  6
DASHED2
 62
     1
100
AcDbLine
 10
70.9
 20
235.8
 30
0.0
 11
64.9
 21
235.8
 31
0.0
  0
LINE
  5
205
100
AcDbEntity
  8
LAY-4
  6
DASHED2
 62
     3
100
AcDbLine
 10
70.9
 20
236.15
 30
0.0
 11
64.9
 21
236.15
 31
0.0
  0
LINE
  5
206
100
AcDbEntity
  8
LAY-4
  6
DASHED2
 62
     1
100
AcDbLine
 10
70.9
 20
240.8
 30
0.0
 11
64.9
 21
240.8
 31
0.0
  0
LINE
  5
207
100
AcDbEntity
  8
LAY-4
  6
DASHED2
 62
     3
100
AcDbLine
 10
70.9
 20
240.45
 30
0.0
 11
64.9
 21
240.45
 31
0.0
  0
LINE
  5
208
100
AcDbEntity
  8
LAY-4
  6
DASHED2
 62
     1
100
AcDbLine
 10
70.9
 20
215.8
 30
0.0
 11
64.9
 21
215.8
 31
0.0
  0
LINE
  5
209
100
AcDbEntity
  8
LAY-4
  6
DASHED2
 62
     3
100
AcDbLine
 10
70.9
 20
216.15
 30
0.0
 11
64.9
 21
216.15
 31
0.0
  0
LINE
  5
20A
100
AcDbEntity
  8
LAY-4
  6
DASHED2
 62
     1
100
AcDbLine
 10
70.9
 20
220.8
 30
0.0
 11
64.9
 21
220.8
 31
0.0
  0
LINE
  5
20B
100
AcDbEntity
  8
LAY-4
  6
DASHED2
 62
     3
100
AcDbLine
 10
70.9
 20
220.45
 30
0.0
 11
64.9
 21
220.45
 31
0.0
  0
LINE
  5
20C
100
AcDbEntity
  8
LAY-4
  6
CONTINUOUS
 62
     3
100
AcDbLine
 10
445.6
 20
189.3
 30
0.0
 11
445.6
 21
183.3
 31
0.0
  0
LINE
  5
20D
100
AcDbEntity
  8
LAY-4
  6
CONTINUOUS
 62
     3
100
AcDbLine
 10
401.6
 20
189.3
 30
0.0
 11
401.6
 21
183.3
 31
0.0
  0
LINE
  5
20E
100
AcDbEntity
  8
LAY-4
  6
DASHED2
 62
     3
100
AcDbLine
 10
401.6
 20
194.3
 30
0.0
 11
401.6
 21
189.3
 31
0.0
  0
LINE
  5
20F
100
AcDbEntity
  8
LAY-4
  6
DASHED2
 62
     3
100
AcDbLine
 10
445.6
 20
194.3
 30
0.0
 11
445.6
 21
189.3
 31
0.0
  0
LINE
  5
210
100
AcDbEntity
  8
LAY-4
  6
DASHED2
 62
     3
100
AcDbLine
 10
407.6
 20
194.3
 30
0.0
 11
407.6
 21
189.3
 31
0.0
  0
LINE
  5
211
100
AcDbEntity
  8
LAY-4
  6
DASHED2
 62
     3
100
AcDbLine
 10
439.6
 20
194.3
 30
0.0
 11
439.6
 21
189.3
 31
0.0
  0
LINE
  5
212
100
AcDbEntity
  8
LAY-4
  6
CONTINUOUS
 62
     3
100
AcDbLine
 10
545.9
 20
273.0
 30
0.0
 11
545.9
 21
229.0
 31
0.0
  0
LINE
  5
213
100
AcDbEntity
  8
LAY-4
  6
CONTINUOUS
 62
     3
100
AcDbLine
 10
539.9
 20
229.0
 30
0.0
 11
539.9
 21
273.0
 31
0.0
  0
LINE
  5
214
100
AcDbEntity
  8
LAY-4
  6
DASHED2
 62
     1
100
AcDbLine
 10
539.9
 20
253.5
 30
0.0
 11
545.9
 21
253.5
 31
0.0
  0
LINE
  5
215
100
AcDbEntity
  8
LAY-4
  6
DASHED2
 62
     1
100
AcDbLine
 10
539.9
 20
248.5
 30
0.0
 11
545.9
 21
248.5
 31
0.0
  0
LINE
  5
216
100
AcDbEntity
  8
LAY-4
  6
DASHED2
 62
     3
100
AcDbLine
 10
539.9
 20
253.15
 30
0.0
 11
545.9
 21
253.15
 31
0.0
  0
LINE
  5
217
100
AcDbEntity
  8
LAY-4
  6
DASHED2
 62
     3
100
AcDbLine
 10
539.9
 20
248.85
 30
0.0
 11
545.9
 21
248.85
 31
0.0
  0
LINE
  5
218
100
AcDbEntity
  8
LAY-4
  6
CONTINUOUS
 62
     3
100
AcDbLine
 10
129.0
 20
210.3
 30
0.0
 11
129.0
 21
189.3
 31
0.0
  0
LINE
  5
219
100
AcDbEntity
  8
LAY-4
  6
CONTINUOUS
 62
     3
100
AcDbLine
 10
91.0
 20
210.3
 30
0.0
 11
129.0
 21
210.3
 31
0.0
  0
LINE
  5
21A
100
AcDbEntity
  8
LAY-4
  6
CONTINUOUS
 62
     3
100
AcDbLine
 10
91.0
 20
210.3
 30
0.0
 11
91.0
 21
189.3
 31
0.0
  0
LINE
  5
21B
100
AcDbEntity
  8
LAY-4
  6
CONTINUOUS
 62
     3
100
AcDbLine
 10
90.0
 20
211.3
 30
0.0
 11
130.0
 21
211.3
 31
0.0
  0
LINE
  5
21C
100
AcDbEntity
  8
LAY-4
  6
CONTINUOUS
 62
     3
100
AcDbLine
 10
90.0
 20
210.3
 30
0.0
 11
130.0
 21
210.3
 31
0.0
  0
LINE
  5
21D
100
AcDbEntity
  8
LAY-4
  6
CONTINUOUS
 62
     3
100
AcDbLine
 10
130.0
 20
211.3
 30
0.0
 11
130.0
 21
210.3
 31
0.0
  0
LINE
  5
21E
100
AcDbEntity
  8
LAY-4
  6
CONTINUOUS
 62
     3
100
AcDbLine
 10
90.0
 20
211.3
 30
0.0
 11
90.0
 21
210.3
 31
0.0
  0
LINE
  5
21F
100
AcDbEntity
  8
LAY-4
  6
CONTINUOUS
 62
     3
100
AcDbLine
 10
129.0
 20
183.3
 30
0.0
 11
129.0
 21
182.3
 31
0.0
  0
LINE
  5
220
100
AcDbEntity
  8
LAY-4
  6
CONTINUOUS
 62
     3
100
AcDbLine
 10
107.0
 20
177.15
 30
0.0
 11
113.0
 21
177.15
 31
0.0
  0
LINE
  5
221
100
AcDbEntity
  8
LAY-4
  6
CONTINUOUS
 62
     3
100
AcDbLine
 10
102.0
 20
182.3
 30
0.0
 11
102.0
 21
181.9
 31
0.0
  0
LINE
  5
222
100
AcDbEntity
  8
LAY-4
  6
CONTINUOUS
 62
     3
100
AcDbLine
 10
105.0
 20
181.9
 30
0.0
 11
107.0
 21
180.8
 31
0.0
  0
LINE
  5
223
100
AcDbEntity
  8
LAY-4
  6
CONTINUOUS
 62
     3
100
AcDbLine
 10
105.0
 20
181.9
 30
0.0
 11
102.0
 21
181.9
 31
0.0
  0
LINE
  5
224
100
AcDbEntity
  8
LAY-4
  6
CONTINUOUS
 62
     3
100
AcDbLine
 10
115.0
 20
181.9
 30
0.0
 11
113.0
 21
180.8
 31
0.0
  0
LINE
  5
225
100
AcDbEntity
  8
LAY-4
  6
CONTINUOUS
 62
     3
100
AcDbLine
 10
118.0
 20
182.3
 30
0.0
 11
118.0
 21
181.9
 31
0.0
  0
LINE
  5
226
100
AcDbEntity
  8
LAY-4
  6
CONTINUOUS
 62
     3
100
AcDbLine
 10
118.0
 20
181.9
 30
0.0
 11
115.0
 21
181.9
 31
0.0
  0
LINE
  5
227
100
AcDbEntity
  8
LAY-4
  6
CONTINUOUS
 62
     3
100
AcDbLine
 10
114.897257
 20
182.3
 30
0.0
 11
113.0
 21
181.256508
 31
0.0
  0
LINE
  5
228
100
AcDbEntity
  8
LAY-4
  6
CONTINUOUS
 62
     3
100
AcDbLine
 10
105.102743
 20
182.3
 30
0.0
 11
107.0
 21
181.256508
 31
0.0
  0
LINE
  5
229
100
AcDbEntity
  8
LAY-4
  6
CONTINUOUS
 62
     3
100
AcDbLine
 10
113.0
 20
182.3
 30
0.0
 11
113.0
 21
177.15
 31
0.0
  0
LINE
  5
22A
100
AcDbEntity
  8
LAY-4
  6
CONTINUOUS
 62
     3
100
AcDbLine
 10
107.0
 20
182.3
 30
0.0
 11
107.0
 21
177.15
 31
0.0
  0
LINE
  5
22B
100
AcDbEntity
  8
LAY-4
  6
CONTINUOUS
 62
     3
100
AcDbLine
 10
129.0
 20
182.3
 30
0.0
 11
91.0
 21
182.3
 31
0.0
  0
LINE
  5
22C
100
AcDbEntity
  8
LAY-4
  6
CONTINUOUS
 62
     3
100
AcDbLine
 10
72.9
 20
189.3
 30
0.0
 11
84.070099
 21
189.3
 31
0.0
  0
LINE
  5
22D
100
AcDbEntity
  8
LAY-4
  6
DASHED2
 62
     3
100
AcDbLine
 10
84.11
 20
189.3
 30
0.0
 11
89.843601
 21
189.3
 31
0.0
  0
LINE
  5
22E
100
AcDbEntity
  8
LAY-4
  6
CONTINUOUS
 62
     3
100
AcDbLine
 10
80.605997
 20
183.3
 30
0.0
 11
70.9
 21
183.3
 31
0.0
  0
LINE
  5
22F
100
AcDbEntity
  8
LAY-4
  6
DASHED2
 62
     3
100
AcDbLine
 10
86.3795
 20
183.3
 30
0.0
 11
80.605997
 21
183.3
 31
0.0
  0
LINE
  5
230
100
AcDbEntity
  8
LAY-4
  6
CONTINUOUS
 62
     3
100
AcDbLine
 10
91.0
 20
183.3
 30
0.0
 11
91.0
 21
182.3
 31
0.0
  0
LINE
  5
231
100
AcDbEntity
  8
LAY-4
  6
CONTINUOUS
 62
     3
100
AcDbLine
 10
133.6205
 20
183.3
 30
0.0
 11
86.3795
 21
183.3
 31
0.0
  0
LINE
  5
232
100
AcDbEntity
  8
LAY-4
  6
DASHED2
 62
     3
100
AcDbLine
 10
130.156399
 20
189.3
 30
0.0
 11
135.929901
 21
189.3
 31
0.0
  0
LINE
  5
233
100
AcDbEntity
  8
LAY-4
  6
CONTINUOUS
 62
     3
100
AcDbLine
 10
89.843601
 20
189.3
 30
0.0
 11
130.156399
 21
189.3
 31
0.0
  0
LINE
  5
234
100
AcDbEntity
  8
LAY-4
  6
CONTINUOUS
 62
     3
100
AcDbLine
 10
139.9
 20
189.3
 30
0.0
 11
139.9
 21
183.3
 31
0.0
  0
LINE
  5
235
100
AcDbEntity
  8
LAY-4
  6
DASHED2
 62
     3
100
AcDbLine
 10
133.6205
 20
183.3
 30
0.0
 11
139.394003
 21
183.3
 31
0.0
  0
LINE
  5
236
100
AcDbEntity
  8
LAY-4
  6
CONTINUOUS
 62
     3
100
AcDbLine
 10
139.394003
 20
183.3
 30
0.0
 11
139.9
 21
183.3
 31
0.0
  0
LINE
  5
237
100
AcDbEntity
  8
LAY-4
  6
CONTINUOUS
 62
     3
100
AcDbLine
 10
135.929901
 20
189.3
 30
0.0
 11
139.9
 21
189.3
 31
0.0
  0
CIRCLE
  5
238
100
AcDbEntity
  8
LAY-4
  6
DASHED2
 62
     3
100
AcDbCircle
 10
598.9
 20
263.0
 30
0.0
 40
3.5
  0
CIRCLE
  5
239
100
AcDbEntity
  8
LAY-4
  6
DASHED2
 62
     3
100
AcDbCircle
 10
570.9
 20
239.0
 30
0.0
 40
3.5
  0
ARC
  5
23A
100
AcDbEntity
  8
LAY-4
  6
DASHED2
 62
     3
100
AcDbCircle
 10
600.135294
 20
264.235294
 30
0.0
 40
0.823529
100
AcDbArc
 50
180.0
 51
270.0
  0
ARC
  5
23B
100
AcDbEntity
  8
LAY-4
  6
DASHED2
 62
     3
100
AcDbCircle
 10
597.664706
 20
261.764706
 30
0.0
 40
0.823529
100
AcDbArc
 50
0.0
 51
90.0
  0
ARC
  5
23C
100
AcDbEntity
  8
LAY-4
  6
DASHED2
 62
     3
100
AcDbCircle
 10
597.664706
 20
264.235294
 30
0.0
 40
0.823529
100
AcDbArc
 50
270.0
 51
0.0
  0
ARC
  5
23D
100
AcDbEntity
  8
LAY-4
  6
DASHED2
 62
     3
100
AcDbCircle
 10
600.135294
 20
261.764706
 30
0.0
 40
0.823529
100
AcDbArc
 50
90.0
 51
180.0
  0
ARC
  5
23E
100
AcDbEntity
  8
LAY-4
  6
DASHED2
 62
     3
100
AcDbCircle
 10
600.135294
 20
264.235294
 30
0.0
 40
0.823529
100
AcDbArc
 50
180.0
 51
270.0
  0
ARC
  5
23F
100
AcDbEntity
  8
LAY-4
  6
DASHED2
 62
     3
100
AcDbCircle
 10
600.135294
 20
261.764706
 30
0.0
 40
0.823529
100
AcDbArc
 50
90.0
 51
180.0
  0
LINE
  5
240
100
AcDbEntity
  8
LAY-4
  6
DASHED2
 62
     3
100
AcDbLine
 10
599.311765
 20
264.235294
 30
0.0
 11
599.311765
 21
265.1
 31
0.0
  0
LINE
  5
241
100
AcDbEntity
  8
LAY-4
  6
DASHED2
 62
     3
100
AcDbLine
 10
598.488235
 20
265.1
 30
0.0
 11
599.311765
 21
265.1
 31
0.0
  0
LINE
  5
242
100
AcDbEntity
  8
LAY-4
  6
DASHED2
 62
     3
100
AcDbLine
 10
598.488235
 20
264.235294
 30
0.0
 11
598.488235
 21
265.1
 31
0.0
  0
LINE
  5
243
100
AcDbEntity
  8
LAY-4
  6
DASHED2
 62
     3
100
AcDbLine
 10
598.488235
 20
264.235294
 30
0.0
 11
598.488235
 21
265.1
 31
0.0
  0
LINE
  5
244
100
AcDbEntity
  8
LAY-4
  6
DASHED2
 62
     3
100
AcDbLine
 10
599.311765
 20
265.1
 30
0.0
 11
598.488235
 21
265.1
 31
0.0
  0
LINE
  5
245
100
AcDbEntity
  8
LAY-4
  6
DASHED2
 62
     3
100
AcDbLine
 10
599.311765
 20
264.235294
 30
0.0
 11
599.311765
 21
265.1
 31
0.0
  0
LINE
  5
246
100
AcDbEntity
  8
LAY-4
  6
DASHED2
 62
     3
100
AcDbLine
 10
596.8
 20
262.588235
 30
0.0
 11
596.8
 21
263.411765
 31
0.0
  0
LINE
  5
247
100
AcDbEntity
  8
LAY-4
  6
DASHED2
 62
     3
100
AcDbLine
 10
597.664706
 20
262.588235
 30
0.0
 11
596.8
 21
262.588235
 31
0.0
  0
LINE
  5
248
100
AcDbEntity
  8
LAY-4
  6
DASHED2
 62
     3
100
AcDbLine
 10
597.664706
 20
263.411765
 30
0.0
 11
596.8
 21
263.411765
 31
0.0
  0
LINE
  5
249
100
AcDbEntity
  8
LAY-4
  6
DASHED2
 62
     3
100
AcDbLine
 10
599.311765
 20
260.9
 30
0.0
 11
598.488235
 21
260.9
 31
0.0
  0
LINE
  5
24A
100
AcDbEntity
  8
LAY-4
  6
DASHED2
 62
     3
100
AcDbLine
 10
599.311765
 20
261.764706
 30
0.0
 11
599.311765
 21
260.9
 31
0.0
  0
LINE
  5
24B
100
AcDbEntity
  8
LAY-4
  6
DASHED2
 62
     3
100
AcDbLine
 10
598.488235
 20
261.764706
 30
0.0
 11
598.488235
 21
260.9
 31
0.0
  0
LINE
  5
24C
100
AcDbEntity
  8
LAY-4
  6
DASHED2
 62
     3
100
AcDbLine
 10
598.488235
 20
261.764706
 30
0.0
 11
598.488235
 21
260.9
 31
0.0
  0
LINE
  5
24D
100
AcDbEntity
  8
LAY-4
  6
DASHED2
 62
     3
100
AcDbLine
 10
599.311765
 20
261.764706
 30
0.0
 11
599.311765
 21
260.9
 31
0.0
  0
LINE
  5
24E
100
AcDbEntity
  8
LAY-4
  6
DASHED2
 62
     3
100
AcDbLine
 10
601.0
 20
263.411765
 30
0.0
 11
601.0
 21
262.588235
 31
0.0
  0
LINE
  5
24F
100
AcDbEntity
  8
LAY-4
  6
DASHED2
 62
     3
100
AcDbLine
 10
600.135294
 20
262.588235
 30
0.0
 11
601.0
 21
262.588235
 31
0.0
  0
LINE
  5
250
100
AcDbEntity
  8
LAY-4
  6
DASHED2
 62
     3
100
AcDbLine
 10
600.135294
 20
263.411765
 30
0.0
 11
601.0
 21
263.411765
 31
0.0
  0
LINE
  5
251
100
AcDbEntity
  8
LAY-4
  6
DASHED2
 62
     3
100
AcDbLine
 10
600.135294
 20
263.411765
 30
0.0
 11
601.0
 21
263.411765
 31
0.0
  0
ARC
  5
252
100
AcDbEntity
  8
LAY-4
  6
DASHED2
 62
     3
100
AcDbCircle
 10
572.135294
 20
240.235294
 30
0.0
 40
0.823529
100
AcDbArc
 50
180.0
 51
270.0
  0
ARC
  5
253
100
AcDbEntity
  8
LAY-4
  6
DASHED2
 62
     3
100
AcDbCircle
 10
569.664706
 20
237.764706
 30
0.0
 40
0.823529
100
AcDbArc
 50
0.0
 51
90.0
  0
ARC
  5
254
100
AcDbEntity
  8
LAY-4
  6
DASHED2
 62
     3
100
AcDbCircle
 10
569.664706
 20
240.235294
 30
0.0
 40
0.823529
100
AcDbArc
 50
270.0
 51
0.0
  0
ARC
  5
255
100
AcDbEntity
  8
LAY-4
  6
DASHED2
 62
     3
100
AcDbCircle
 10
572.135294
 20
237.764706
 30
0.0
 40
0.823529
100
AcDbArc
 50
90.0
 51
180.0
  0
ARC
  5
256
100
AcDbEntity
  8
LAY-4
  6
DASHED2
 62
     3
100
AcDbCircle
 10
572.135294
 20
240.235294
 30
0.0
 40
0.823529
100
AcDbArc
 50
180.0
 51
270.0
  0
ARC
  5
257
100
AcDbEntity
  8
LAY-4
  6
DASHED2
 62
     3
100
AcDbCircle
 10
572.135294
 20
237.764706
 30
0.0
 40
0.823529
100
AcDbArc
 50
90.0
 51
180.0
  0
LINE
  5
258
100
AcDbEntity
  8
LAY-4
  6
DASHED2
 62
     3
100
AcDbLine
 10
571.311765
 20
240.235294
 30
0.0
 11
571.311765
 21
241.1
 31
0.0
  0
LINE
  5
259
100
AcDbEntity
  8
LAY-4
  6
DASHED2
 62
     3
100
AcDbLine
 10
570.488235
 20
241.1
 30
0.0
 11
571.311765
 21
241.1
 31
0.0
  0
LINE
  5
25A
100
AcDbEntity
  8
LAY-4
  6
DASHED2
 62
     3
100
AcDbLine
 10
570.488235
 20
240.235294
 30
0.0
 11
570.488235
 21
241.1
 31
0.0
  0
LINE
  5
25B
100
AcDbEntity
  8
LAY-4
  6
DASHED2
 62
     3
100
AcDbLine
 10
570.488235
 20
240.235294
 30
0.0
 11
570.488235
 21
241.1
 31
0.0
  0
LINE
  5
25C
100
AcDbEntity
  8
LAY-4
  6
DASHED2
 62
     3
100
AcDbLine
 10
571.311765
 20
241.1
 30
0.0
 11
570.488235
 21
241.1
 31
0.0
  0
LINE
  5
25D
100
AcDbEntity
  8
LAY-4
  6
DASHED2
 62
     3
100
AcDbLine
 10
571.311765
 20
240.235294
 30
0.0
 11
571.311765
 21
241.1
 31
0.0
  0
LINE
  5
25E
100
AcDbEntity
  8
LAY-4
  6
DASHED2
 62
     3
100
AcDbLine
 10
568.8
 20
238.588235
 30
0.0
 11
568.8
 21
239.411765
 31
0.0
  0
LINE
  5
25F
100
AcDbEntity
  8
LAY-4
  6
DASHED2
 62
     3
100
AcDbLine
 10
569.664706
 20
238.588235
 30
0.0
 11
568.8
 21
238.588235
 31
0.0
  0
LINE
  5
260
100
AcDbEntity
  8
LAY-4
  6
DASHED2
 62
     3
100
AcDbLine
 10
569.664706
 20
239.411765
 30
0.0
 11
568.8
 21
239.411765
 31
0.0
  0
LINE
  5
261
100
AcDbEntity
  8
LAY-4
  6
DASHED2
 62
     3
100
AcDbLine
 10
571.311765
 20
236.9
 30
0.0
 11
570.488235
 21
236.9
 31
0.0
  0
LINE
  5
262
100
AcDbEntity
  8
LAY-4
  6
DASHED2
 62
     3
100
AcDbLine
 10
571.311765
 20
237.764706
 30
0.0
 11
571.311765
 21
236.9
 31
0.0
  0
LINE
  5
263
100
AcDbEntity
  8
LAY-4
  6
DASHED2
 62
     3
100
AcDbLine
 10
570.488235
 20
237.764706
 30
0.0
 11
570.488235
 21
236.9
 31
0.0
  0
LINE
  5
264
100
AcDbEntity
  8
LAY-4
  6
DASHED2
 62
     3
100
AcDbLine
 10
570.488235
 20
237.764706
 30
0.0
 11
570.488235
 21
236.9
 31
0.0
  0
LINE
  5
265
100
AcDbEntity
  8
LAY-4
  6
DASHED2
 62
     3
100
AcDbLine
 10
571.311765
 20
237.764706
 30
0.0
 11
571.311765
 21
236.9
 31
0.0
  0
LINE
  5
266
100
AcDbEntity
  8
LAY-4
  6
DASHED2
 62
     3
100
AcDbLine
 10
573.0
 20
239.411765
 30
0.0
 11
573.0
 21
238.588235
 31
0.0
  0
LINE
  5
267
100
AcDbEntity
  8
LAY-4
  6
DASHED2
 62
     3
100
AcDbLine
 10
572.135294
 20
238.588235
 30
0.0
 11
573.0
 21
238.588235
 31
0.0
  0
LINE
  5
268
100
AcDbEntity
  8
LAY-4
  6
DASHED2
 62
     3
100
AcDbLine
 10
572.135294
 20
239.411765
 30
0.0
 11
573.0
 21
239.411765
 31
0.0
  0
LINE
  5
269
100
AcDbEntity
  8
LAY-4
  6
DASHED2
 62
     3
100
AcDbLine
 10
572.135294
 20
239.411765
 30
0.0
 11
573.0
 21
239.411765
 31
0.0
  0
LINE
  5
26A
100
AcDbEntity
  8
LAY-4
  6
CONTINUOUS
 62
     3
100
AcDbLine
 10
565.9
 20
235.0
 30
0.0
 11
565.9
 21
267.0
 31
0.0
  0
LINE
  5
26B
100
AcDbEntity
  8
LAY-4
  6
CONTINUOUS
 62
     3
100
AcDbLine
 10
592.5
 20
256.865151
 30
0.0
 11
592.5
 21
245.134849
 31
0.0
  0
ARC
  5
26C
100
AcDbEntity
  8
LAY-4
  6
CONTINUOUS
 62
     3
100
AcDbCircle
 10
584.9
 20
251.0
 30
0.0
 40
9.6
100
AcDbArc
 50
134.688756
 51
225.311244
  0
ARC
  5
26D
100
AcDbEntity
  8
LAY-4
  6
CONTINUOUS
 62
     3
100
AcDbCircle
 10
584.9
 20
251.0
 30
0.0
 40
9.6
100
AcDbArc
 50
314.688756
 51
322.341538
  0
ARC
  5
26E
100
AcDbEntity
  8
LAY-4
  6
CONTINUOUS
 62
     3
100
AcDbCircle
 10
584.9
 20
251.0
 30
0.0
 40
9.6
100
AcDbArc
 50
37.658462
 51
45.311244
  0
LINE
  5
26F
100
AcDbEntity
  8
LAY-4
  6
CONTINUOUS
 62
     3
100
AcDbLine
 10
603.9
 20
235.0
 30
0.0
 11
603.9
 21
267.0
 31
0.0
  0
ARC
  5
270
100
AcDbEntity
  8
LAY-4
  6
CONTINUOUS
 62
     3
100
AcDbCircle
 10
608.9
 20
267.0
 30
0.0
 40
6.0
100
AcDbArc
 50
0.0
 51
89.999981
  0
ARC
  5
271
100
AcDbEntity
  8
LAY-4
  6
CONTINUOUS
 62
     3
100
AcDbCircle
 10
608.9
 20
235.0
 30
0.0
 40
6.0
100
AcDbArc
 50
270.000001
 51
0.0
  0
LINE
  5
272
100
AcDbEntity
  8
LAY-4
  6
CONTINUOUS
 62
     3
100
AcDbLine
 10
614.9
 20
267.0
 30
0.0
 11
614.9
 21
235.0
 31
0.0
  0
ARC
  5
273
100
AcDbEntity
  8
LAY-4
  6
DASHED2
 62
     3
100
AcDbCircle
 10
594.9
 20
251.0
 30
0.0
 40
10.0
100
AcDbArc
 50
270.0
 51
90.0
  0
ARC
  5
274
100
AcDbEntity
  8
LAY-4
  6
DASHED2
 62
     3
100
AcDbCircle
 10
574.9
 20
251.0
 30
0.0
 40
10.0
100
AcDbArc
 50
90.0
 51
270.0
  0
LINE
  5
275
100
AcDbEntity
  8
LAY-4
  6
CONTINUOUS
 62
     3
100
AcDbLine
 10
539.9
 20
273.0
 30
0.0
 11
608.9
 21
273.0
 31
0.0
  0
LINE
  5
276
100
AcDbEntity
  8
LAY-4
  6
CONTINUOUS
 62
     3
100
AcDbLine
 10
539.9
 20
229.0
 30
0.0
 11
608.9
 21
229.0
 31
0.0
  0
LINE
  5
277
100
AcDbEntity
  8
LAY-4
  6
CONTINUOUS
 62
     3
100
AcDbLine
 10
603.9
 20
267.0
 30
0.0
 11
565.9
 21
267.0
 31
0.0
  0
LINE
  5
278
100
AcDbEntity
  8
LAY-4
  6
CONTINUOUS
 62
     3
100
AcDbLine
 10
603.9
 20
235.0
 30
0.0
 11
565.9
 21
235.0
 31
0.0
  0
LINE
  5
279
100
AcDbEntity
  8
LAY-4
  6
CONTINUOUS
 62
     3
100
AcDbLine
 10
578.14875
 20
257.825
 30
0.0
 11
591.65125
 21
257.825
 31
0.0
  0
LINE
  5
27A
100
AcDbEntity
  8
LAY-4
  6
CONTINUOUS
 62
     3
100
AcDbLine
 10
578.14875
 20
244.175
 30
0.0
 11
591.65125
 21
244.175
 31
0.0
  0
LINE
  5
27B
100
AcDbEntity
  8
LAY-4
  6
CONTINUOUS
 62
     3
100
AcDbLine
 10
577.436262
 20
257.0376
 30
0.0
 11
592.363738
 21
257.0376
 31
0.0
  0
LINE
  5
27C
100
AcDbEntity
  8
LAY-4
  6
CONTINUOUS
 62
     3
100
AcDbLine
 10
577.436262
 20
244.9624
 30
0.0
 11
592.363738
 21
244.9624
 31
0.0
  0
LINE
  5
27D
100
AcDbEntity
  8
LAY-4
  6
DASHED2
 62
     3
100
AcDbLine
 10
574.9
 20
261.0
 30
0.0
 11
594.9
 21
261.0
 31
0.0
  0
LINE
  5
27E
100
AcDbEntity
  8
LAY-4
  6
DASHED2
 62
     3
100
AcDbLine
 10
574.9
 20
241.0
 30
0.0
 11
594.9
 21
241.0
 31
0.0
  0
CIRCLE
  5
27F
100
AcDbEntity
  8
LAY-4
  6
CONTINUOUS
 62
     3
100
AcDbCircle
 10
585.0
 20
251.0
 30
0.0
 40
4.65
  0
CIRCLE
  5
280
100
AcDbEntity
  8
LAY-4
  6
CONTINUOUS
 62
     3
100
AcDbCircle
 10
585.0
 20
251.0
 30
0.0
 40
4.5
  0
LINE
  5
281
100
AcDbEntity
  8
LAY-4
  6
DIVIDE
 62
     1
100
AcDbLine
 10
604.9
 20
269.0
 30
0.0
 11
564.9
 21
269.0
 31
0.0
  0
LINE
  5
282
100
AcDbEntity
  8
LAY-4
  6
DIVIDE
 62
     1
100
AcDbLine
 10
564.9
 20
269.0
 30
0.0
 11
564.9
 21
233.0
 31
0.0
  0
LINE
  5
283
100
AcDbEntity
  8
LAY-4
  6
DIVIDE
 62
     1
100
AcDbLine
 10
604.9
 20
233.0
 30
0.0
 11
564.9
 21
233.0
 31
0.0
  0
LINE
  5
284
100
AcDbEntity
  8
LAY-4
  6
DIVIDE
 62
     1
100
AcDbLine
 10
604.9
 20
233.0
 30
0.0
 11
604.9
 21
269.0
 31
0.0
  0
LINE
  5
285
100
AcDbEntity
  8
LAY-5
  6
DASHDOT
 62
     1
100
AcDbLine
 10
570.9
 20
130.0
 30
0.0
 11
776.7
 21
130.0
 31
0.0
  0
LINE
  5
286
100
AcDbEntity
  8
LAY-5
  6
DASHDOT
 62
     1
100
AcDbLine
 10
71.75
 20
238.3
 30
0.0
 11
62.6
 21
238.3
 31
0.0
  0
LINE
  5
287
100
AcDbEntity
  8
LAY-5
  6
DASHDOT
 62
     1
100
AcDbLine
 10
71.75
 20
218.3
 30
0.0
 11
62.6
 21
218.3
 31
0.0
  0
LINE
  5
288
100
AcDbEntity
  8
LAY-5
  6
DASHDOT
 62
     1
100
AcDbLine
 10
423.59997
 20
536.6
 30
0.0
 11
423.59997
 21
172.0
 31
0.0
  0
LINE
  5
289
100
AcDbEntity
  8
LAY-5
  6
DASHDOT
 62
     1
100
AcDbLine
 10
90.0
 20
107.0
 30
0.0
 11
228.4
 21
107.0
 31
0.0
  0
LINE
  5
28A
100
AcDbEntity
  8
LAY-5
  6
DASHDOT
 62
     1
100
AcDbLine
 10
162.0
 20
119.5
 30
0.0
 11
162.0
 21
102.8
 31
0.0
  0
LINE
  5
28B
100
AcDbEntity
  8
LAY-5
  6
CONTINUOUS
 62
     1
100
AcDbLine
 10
102.5
 20
417.8
 30
0.0
 11
117.5
 21
417.8
 31
0.0
  0
LINE
  5
28C
100
AcDbEntity
  8
LAY-5
  6
DASHDOT
 62
     1
100
AcDbLine
 10
210.0
 20
244.0
 30
0.0
 11
210.0
 21
224.7
 31
0.0
  0
LINE
  5
28D
100
AcDbEntity
  8
LAY-5
  6
DASHDOT
 62
     1
100
AcDbLine
 10
186.0
 20
244.0
 30
0.0
 11
186.0
 21
224.7
 31
0.0
  0
LINE
  5
28E
100
AcDbEntity
  8
LAY-5
  6
DASHDOT
 62
     1
100
AcDbLine
 10
162.0
 20
244.0
 30
0.0
 11
162.0
 21
224.7
 31
0.0
  0
LINE
  5
28F
100
AcDbEntity
  8
LAY-5
  6
DASHDOT
 62
     1
100
AcDbLine
 10
138.0
 20
244.0
 30
0.0
 11
138.0
 21
224.7
 31
0.0
  0
LINE
  5
290
100
AcDbEntity
  8
LAY-5
  6
DASHDOT
 62
     1
100
AcDbLine
 10
210.99997
 20
499.0
 30
0.0
 11
210.99997
 21
525.8
 31
0.0
  0
LINE
  5
291
100
AcDbEntity
  8
LAY-5
  6
DASHDOT
 62
     1
100
AcDbLine
 10
189.99997
 20
497.7
 30
0.0
 11
189.99997
 21
521.7
 31
0.0
  0
LINE
  5
292
100
AcDbEntity
  8
LAY-5
  6
DASHDOT
 62
     1
100
AcDbLine
 10
202.4
 20
516.5
 30
0.0
 11
219.6
 21
516.5
 31
0.0
  0
LINE
  5
293
100
AcDbEntity
  8
LAY-5
  6
DASHDOT
 62
     1
100
AcDbLine
 10
181.2
 20
512.5
 30
0.0
 11
198.7
 21
512.5
 31
0.0
  0
LINE
  5
294
100
AcDbEntity
  8
LAY-5
  6
DASHDOT
 62
     1
100
AcDbLine
 10
240.0
 20
474.0
 30
0.0
 11
240.0
 21
492.8
 31
0.0
  0
LINE
  5
295
100
AcDbEntity
  8
LAY-5
  6
DASHDOT
 62
     1
100
AcDbLine
 10
205.0
 20
474.0
 30
0.0
 11
205.0
 21
492.7
 31
0.0
  0
LINE
  5
296
100
AcDbEntity
  8
LAY-5
  6
DASHDOT
 62
     1
100
AcDbLine
 10
170.0
 20
474.0
 30
0.0
 11
170.0
 21
493.1
 31
0.0
  0
LINE
  5
297
100
AcDbEntity
  8
LAY-5
  6
DASHDOT
 62
     1
100
AcDbLine
 10
135.0
 20
474.0
 30
0.0
 11
135.0
 21
492.9
 31
0.0
  0
LINE
  5
298
100
AcDbEntity
  8
LAY-5
  6
DASHDOT
 62
     1
100
AcDbLine
 10
134.999978
 20
511.862071
 30
0.0
 11
134.999978
 21
494.2
 31
0.0
  0
LINE
  5
299
100
AcDbEntity
  8
LAY-5
  6
DASHDOT
 62
     1
100
AcDbLine
 10
154.999978
 20
511.862071
 30
0.0
 11
154.999978
 21
494.2
 31
0.0
  0
LINE
  5
29A
100
AcDbEntity
  8
LAY-5
  6
DASHDOT
 62
     1
100
AcDbLine
 10
231.999955
 20
511.862071
 30
0.0
 11
231.999955
 21
494.2
 31
0.0
  0
LINE
  5
29B
100
AcDbEntity
  8
LAY-5
  6
DASHDOT
 62
     1
100
AcDbLine
 10
585.0
 20
365.5
 30
0.0
 11
585.0
 21
390.5
 31
0.0
  0
LINE
  5
29C
100
AcDbEntity
  8
LAY-5
  6
DASHDOT
 62
     1
100
AcDbLine
 10
610.0
 20
376.7001
 30
0.0
 11
610.0
 21
390.5001
 31
0.0
  0
LINE
  5
29D
100
AcDbEntity
  8
LAY-5
  6
DASHDOT
 62
     1
100
AcDbLine
 10
680.0
 20
375.5001
 30
0.0
 11
680.0
 21
390.5001
 31
0.0
  0
LINE
  5
29E
100
AcDbEntity
  8
LAY-5
  6
DASHDOT
 62
     1
100
AcDbLine
 10
671.1
 20
382.999939
 30
0.0
 11
689.9
 21
382.999939
 31
0.0
  0
LINE
  5
29F
100
AcDbEntity
  8
LAY-5
  6
DASHDOT
 62
     1
100
AcDbLine
 10
601.4
 20
382.999939
 30
0.0
 11
618.4
 21
382.999939
 31
0.0
  0
LINE
  5
2A0
100
AcDbEntity
  8
LAY-5
  6
DASHDOT
 62
     1
100
AcDbLine
 10
644.999961
 20
380.5
 30
0.0
 11
644.999961
 21
365.5
 31
0.0
  0
LINE
  5
2A1
100
AcDbEntity
  8
LAY-5
  6
DASHDOT
 62
     1
100
AcDbLine
 10
653.3999
 20
372.999939
 30
0.0
 11
635.6
 21
372.999939
 31
0.0
  0
LINE
  5
2A2
100
AcDbEntity
  8
LAY-5
  6
DASHDOT
 62
     1
100
AcDbLine
 10
714.999961
 20
380.7
 30
0.0
 11
714.999961
 21
365.5
 31
0.0
  0
LINE
  5
2A3
100
AcDbEntity
  8
LAY-5
  6
DASHDOT
 62
     1
100
AcDbLine
 10
722.5999
 20
372.999939
 30
0.0
 11
707.6999
 21
372.999939
 31
0.0
  0
LINE
  5
2A4
100
AcDbEntity
  8
LAY-5
  6
DASHDOT
 62
     1
100
AcDbLine
 10
565.0
 20
377.999939
 30
0.0
 11
725.0
 21
377.999939
 31
0.0
  0
LINE
  5
2A5
100
AcDbEntity
  8
LAY-5
  6
DASHDOT
 62
     1
100
AcDbLine
 10
645.0
 20
485.4
 30
0.0
 11
645.0
 21
501.2
 31
0.0
  0
LINE
  5
2A6
100
AcDbEntity
  8
LAY-5
  6
DASHDOT
 62
     1
100
AcDbLine
 10
686.0
 20
484.4
 30
0.0
 11
686.0
 21
502.2
 31
0.0
  0
LINE
  5
2A7
100
AcDbEntity
  8
LAY-5
  6
DASHDOT
 62
     1
100
AcDbLine
 10
610.0
 20
495.25
 30
0.0
 11
610.0
 21
509.0
 31
0.0
  0
LINE
  5
2A8
100
AcDbEntity
  8
LAY-5
  6
DASHDOT
 62
     1
100
AcDbLine
 10
601.6
 20
502.0
 30
0.0
 11
618.4
 21
502.0
 31
0.0
  0
LINE
  5
2A9
100
AcDbEntity
  8
LAY-5
  6
DASHDOT
 62
     1
100
AcDbLine
 10
698.1
 20
502.0
 30
0.0
 11
717.1
 21
502.0
 31
0.0
  0
LINE
  5
2AA
100
AcDbEntity
  8
LAY-5
  6
DASHDOT
 62
     1
100
AcDbLine
 10
585.0
 20
476.999961
 30
0.0
 11
585.0
 21
509.0
 31
0.0
  0
LINE
  5
2AB
100
AcDbEntity
  8
LAY-5
  6
DASHDOT
 62
     1
100
AcDbLine
 10
630.0
 20
490.75
 30
0.0
 11
630.0
 21
476.999961
 31
0.0
  0
LINE
  5
2AC
100
AcDbEntity
  8
LAY-5
  6
DASHDOT
 62
     1
100
AcDbLine
 10
707.0
 20
509.0
 30
0.0
 11
707.0
 21
477.999961
 31
0.0
  0
LINE
  5
2AD
100
AcDbEntity
  8
LAY-5
  6
DASHDOT
 62
     1
100
AcDbLine
 10
707.0
 20
483.999961
 30
0.0
 11
716.7
 21
483.999961
 31
0.0
  0
LINE
  5
2AE
100
AcDbEntity
  8
LAY-5
  6
DASHDOT
 62
     1
100
AcDbLine
 10
561.4
 20
493.0
 30
0.0
 11
726.0
 21
493.0
 31
0.0
  0
LINE
  5
2AF
100
AcDbEntity
  8
LAY-5
  6
DASHDOT
 62
     1
100
AcDbLine
 10
621.8
 20
483.9999
 30
0.0
 11
639.1
 21
483.9999
 31
0.0
  0
LINE
  5
2B0
100
AcDbEntity
  8
LAY-5
  6
DASHDOT
 62
     1
100
AcDbLine
 10
585.0
 20
152.3
 30
0.0
 11
585.0
 21
95.9
 31
0.0
  0
LINE
  5
2B1
100
AcDbEntity
  8
LAY-5
  6
DASHDOT
 62
     1
100
AcDbLine
 10
696.7
 20
251.0
 30
0.0
 11
534.8
 21
251.0
 31
0.0
  0
LINE
  5
2B2
100
AcDbEntity
  8
LAY-5
  6
DASHDOT
 62
     1
100
AcDbLine
 10
585.0
 20
226.643207
 30
0.0
 11
585.0
 21
274.497803
 31
0.0
  0
LINE
  5
2B3
100
AcDbEntity
  8
LAY-5
  6
DASHDOT
 62
     1
100
AcDbLine
 10
110.0
 20
539.0
 30
0.0
 11
110.0
 21
171.6
 31
0.0
  0
LINE
  5
2B4
100
AcDbEntity
  8
LAY-5
  6
DASHDOT
 62
     1
100
AcDbLine
 10
110.0
 20
125.0
 30
0.0
 11
110.0
 21
81.0
 31
0.0
  0
LINE
  5
2B5
100
AcDbEntity
  8
LAY-5
  6
DASHDOT
 62
     1
100
AcDbLine
 10
186.0
 20
93.5
 30
0.0
 11
186.0
 21
109.8
 31
0.0
  0
LINE
  5
2B6
100
AcDbEntity
  8
LAY-5
  6
DASHDOT
 62
     1
100
AcDbLine
 10
178.5
 20
101.0
 30
0.0
 11
194.8
 21
101.0
 31
0.0
  0
LINE
  5
2B7
100
AcDbEntity
  8
LAY-5
  6
DASHDOT
 62
     1
100
AcDbLine
 10
128.9
 20
101.0
 30
0.0
 11
148.3
 21
101.0
 31
0.0
  0
LINE
  5
2B8
100
AcDbEntity
  8
LAY-5
  6
DASHDOT
 62
     1
100
AcDbLine
 10
138.0
 20
93.5
 30
0.0
 11
138.0
 21
108.9
 31
0.0
  0
LINE
  5
2B9
100
AcDbEntity
  8
LAY-5
  6
DASHDOT
 62
     1
100
AcDbLine
 10
154.1
 20
113.0
 30
0.0
 11
171.3
 21
113.0
 31
0.0
  0
LINE
  5
2BA
100
AcDbEntity
  8
LAY-5
  6
DASHDOT
 62
     1
100
AcDbLine
 10
201.3
 20
113.0
 30
0.0
 11
220.0
 21
113.0
 31
0.0
  0
LINE
  5
2BB
100
AcDbEntity
  8
LAY-5
  6
DASHDOT
 62
     1
100
AcDbLine
 10
210.0
 20
119.5
 30
0.0
 11
210.0
 21
102.0
 31
0.0
  0
TEXT
  5
2BC
100
AcDbEntity
  8
LAY-6
  6
CONTINUOUS
 62
     2
100
AcDbText
 10
306.0
 20
20.2
 30
0.0
 40
6.0
  1
１／１
 41
0.672
  7
EXCADSTD
 72
     5
 11
320.400001
 21
20.2
 31
0.0
100
AcDbText
  0
INSERT
  5
2BD
100
AcDbEntity
  8
LAY-6
  6
CONTINUOUS
 62
     0
100
AcDbBlockReference
  2
SYM-1
 10
517.5
 20
557.7
 30
0.0
  0
INSERT
  5
2BE
100
AcDbEntity
  8
LAY-6
  6
CONTINUOUS
 62
     0
100
AcDbBlockReference
  2
SYM-2
 10
517.5
 20
414.7
 30
0.0
  0
TEXT
  5
2BF
100
AcDbEntity
  8
LAY-6
  6
CONTINUOUS
 62
     2
100
AcDbText
 10
514.671573
 20
309.871573
 30
0.0
 40
5.656854
  1
４
 41
0.84
  7
EXCADSTD
 72
     5
 11
519.197056
 21
309.871573
 31
0.0
100
AcDbText
  0
CIRCLE
  5
2C0
100
AcDbEntity
  8
LAY-6
  6
CONTINUOUS
 62
     1
100
AcDbCircle
 10
517.5
 20
312.7
 30
0.0
 40
4.0
  0
TEXT
  5
2C1
100
AcDbEntity
  8
LAY-6
  6
CONTINUOUS
 62
     2
100
AcDbText
 10
524.1
 20
309.5
 30
0.0
 40
7.0
  1
軸受金具
 41
0.672
  7
EXCADSTD
 72
     5
 11
546.5
 21
309.5
 31
0.0
100
AcDbText
  0
LINE
  5
2C2
100
AcDbEntity
  8
LAY-6
  6
CONTINUOUS
 62
     1
100
AcDbLine
 10
521.5
 20
309.0
 30
0.0
 11
546.8
 21
309.0
 31
0.0
  0
TEXT
  5
2C3
100
AcDbEntity
  8
LAY-6
  6
CONTINUOUS
 62
     2
100
AcDbText
 10
564.0
 20
175.8
 30
0.0
 40
6.0
  1
本体取付挿入口
 41
0.672
  7
EXCADSTD
 72
     5
 11
597.600001
 21
175.8
 31
0.0
100
AcDbText
  0
LINE
  5
2C4
100
AcDbEntity
  8
LAY-6
  6
CONTINUOUS
 62
     1
100
AcDbLine
 10
561.9
 20
175.5
 30
0.0
 11
598.0
 21
175.5
 31
0.0
  0
TEXT
  5
2C5
100
AcDbEntity
  8
LAY-6
  6
CONTINUOUS
 62
     2
100
AcDbText
 10
607.6
 20
176.3
 30
0.0
 40
6.0
  1
ドア補強チャンネル切欠き図
 41
0.672
  7
EXCADSTD
 72
     5
 11
670.000002
 21
176.3
 31
0.0
100
AcDbText
  0
TEXT
  5
2C6
100
AcDbEntity
  8
LAY-6
  6
CONTINUOUS
 62
     2
100
AcDbText
 10
607.6
 20
169.3
 30
0.0
 40
6.0
  1
斜線部を切欠いて下さい。
 41
0.672
  7
EXCADSTD
 72
     5
 11
665.200002
 21
169.3
 31
0.0
100
AcDbText
  0
TEXT
  5
2C7
100
AcDbEntity
  8
LAY-6
  6
CONTINUOUS
 62
     2
100
AcDbText
 10
50.771573
 20
151.771573
 30
0.0
 40
5.656854
  1
３
 41
0.84
  7
EXCADSTD
 72
     5
 11
55.297056
 21
151.771573
 31
0.0
100
AcDbText
  0
CIRCLE
  5
2C8
100
AcDbEntity
  8
LAY-6
  6
CONTINUOUS
 62
     1
100
AcDbCircle
 10
53.6
 20
154.6
 30
0.0
 40
4.0
  0
TEXT
  5
2C9
100
AcDbEntity
  8
LAY-6
  6
CONTINUOUS
 62
     2
100
AcDbText
 10
60.2
 20
151.4
 30
0.0
 40
7.0
  1
 本  体
 41
0.52416
  7
EXCADSTD
 72
     5
 11
79.8
 21
151.4
 31
0.0
100
AcDbText
  0
LINE
  5
2CA
100
AcDbEntity
  8
LAY-6
  6
CONTINUOUS
 62
     1
100
AcDbLine
 10
57.6
 20
150.9
 30
0.0
 11
82.0
 21
150.9
 31
0.0
  0
TEXT
  5
2CB
100
AcDbEntity
  8
LAY-6
  6
CONTINUOUS
 62
     2
100
AcDbText
 10
49.7
 20
447.8
 30
0.0
 40
6.0
  1
竪　枠
 41
0.672
  7
EXCADSTD
 72
     5
 11
64.100001
 21
447.8
 31
0.0
100
AcDbText
  0
TEXT
  5
2CC
100
AcDbEntity
  8
LAY-6
  6
CONTINUOUS
 62
     2
100
AcDbText
 10
260.103809
 20
518.12887
 30
0.0
 40
5.0
  1
裏板４.５ｔ以上(別途)
 41
0.616
  7
EXCADSTD
 72
     5
 11
302.103809
 21
518.12887
 31
0.0
100
AcDbText
  0
POLYLINE
  5
2CD
100
AcDbEntity
  8
LAY-6
  6
CONTINUOUS
 62
     1
100
AcDb2dPolyline
 66
     1
 10
0.0
 20
0.0
 30
0.0
 70
   128
  0
VERTEX
  5
2CE
100
AcDbEntity
  8
LAY-6
  6
CONTINUOUS
 62
     1
100
AcDbVertex
100
AcDb2dVertex
 10
245.0
 20
505.5
 30
0.0
  0
VERTEX
  5
2CF
100
AcDbEntity
  8
LAY-6
  6
CONTINUOUS
 62
     1
100
AcDbVertex
100
AcDb2dVertex
 10
257.12887
 20
517.62887
 30
0.0
  0
VERTEX
  5
2D0
100
AcDbEntity
  8
LAY-6
  6
CONTINUOUS
 62
     1
100
AcDbVertex
100
AcDb2dVertex
 10
301.078748
 20
517.62887
 30
0.0
  0
SEQEND
  5
2D1
100
AcDbEntity
  8
LAY-6
  6
CONTINUOUS
 62
     1
  0
LINE
  5
2D2
100
AcDbEntity
  8
LAY-6
  6
CONTINUOUS
 62
     1
100
AcDbLine
 10
246.178511
 20
507.149916
 30
0.0
 11
245.0
 21
505.5
 31
0.0
  0
LINE
  5
2D3
100
AcDbEntity
  8
LAY-6
  6
CONTINUOUS
 62
     1
100
AcDbLine
 10
245.0
 20
505.5
 30
0.0
 11
246.649916
 21
506.678511
 31
0.0
  0
TEXT
  5
2D4
100
AcDbEntity
  8
LAY-6
  6
CONTINUOUS
 62
     2
100
AcDbText
 10
254.86628
 20
529.303897
 30
0.0
 40
5.0
  1
４－Ｍ６×１６サラ小ネジ
 41
0.672
  7
EXCADSTD
 72
     5
 11
302.86628
 21
529.303897
 31
0.0
100
AcDbText
  0
POLYLINE
  5
2D5
100
AcDbEntity
  8
LAY-6
  6
CONTINUOUS
 62
     1
100
AcDb2dPolyline
 66
     1
 10
0.0
 20
0.0
 30
0.0
 70
   128
  0
VERTEX
  5
2D6
100
AcDbEntity
  8
LAY-6
  6
CONTINUOUS
 62
     1
100
AcDbVertex
100
AcDb2dVertex
 10
235.349961
 20
511.0
 30
0.0
  0
VERTEX
  5
2D7
100
AcDbEntity
  8
LAY-6
  6
CONTINUOUS
 62
     1
100
AcDbVertex
100
AcDb2dVertex
 10
253.153858
 20
528.803897
 30
0.0
  0
VERTEX
  5
2D8
100
AcDbEntity
  8
LAY-6
  6
CONTINUOUS
 62
     1
100
AcDbVertex
100
AcDb2dVertex
 10
300.578702
 20
528.803897
 30
0.0
  0
SEQEND
  5
2D9
100
AcDbEntity
  8
LAY-6
  6
CONTINUOUS
 62
     1
  0
LINE
  5
2DA
100
AcDbEntity
  8
LAY-6
  6
CONTINUOUS
 62
     1
100
AcDbLine
 10
236.528472
 20
512.649916
 30
0.0
 11
235.349961
 21
511.0
 31
0.0
  0
LINE
  5
2DB
100
AcDbEntity
  8
LAY-6
  6
CONTINUOUS
 62
     1
100
AcDbLine
 10
235.349961
 20
511.0
 30
0.0
 11
236.999877
 21
512.178511
 31
0.0
  0
TEXT
  5
2DC
100
AcDbEntity
  8
LAY-6
  6
CONTINUOUS
 62
     2
100
AcDbText
 10
265.103809
 20
468.17113
 30
0.0
 40
5.0
  1
裏板３.２ｔ以上(別途)
 41
0.616
  7
EXCADSTD
 72
     5
 11
307.103809
 21
468.17113
 31
0.0
100
AcDbText
  0
POLYLINE
  5
2DD
100
AcDbEntity
  8
LAY-6
  6
CONTINUOUS
 62
     1
100
AcDb2dPolyline
 66
     1
 10
0.0
 20
0.0
 30
0.0
 70
   128
  0
VERTEX
  5
2DE
100
AcDbEntity
  8
LAY-6
  6
CONTINUOUS
 62
     1
100
AcDbVertex
100
AcDb2dVertex
 10
250.0
 20
479.8
 30
0.0
  0
VERTEX
  5
2DF
100
AcDbEntity
  8
LAY-6
  6
CONTINUOUS
 62
     1
100
AcDbVertex
100
AcDb2dVertex
 10
262.12887
 20
467.67113
 30
0.0
  0
VERTEX
  5
2E0
100
AcDbEntity
  8
LAY-6
  6
CONTINUOUS
 62
     1
100
AcDbVertex
100
AcDb2dVertex
 10
306.078748
 20
467.67113
 30
0.0
  0
SEQEND
  5
2E1
100
AcDbEntity
  8
LAY-6
  6
CONTINUOUS
 62
     1
  0
LINE
  5
2E2
100
AcDbEntity
  8
LAY-6
  6
CONTINUOUS
 62
     1
100
AcDbLine
 10
251.649916
 20
478.621489
 30
0.0
 11
250.0
 21
479.8
 31
0.0
  0
LINE
  5
2E3
100
AcDbEntity
  8
LAY-6
  6
CONTINUOUS
 62
     1
100
AcDbLine
 10
250.0
 20
479.8
 30
0.0
 11
251.178511
 21
478.150084
 31
0.0
  0
TEXT
  5
2E4
100
AcDbEntity
  8
LAY-6
  6
CONTINUOUS
 62
     2
100
AcDbText
 10
262.116319
 20
458.696165
 30
0.0
 40
5.0
  1
４－Ｍ５×１６サラ小ネジ(P=0.8)
 41
0.586681
  7
EXCADSTD
 72
     5
 11
324.116319
 21
458.696165
 31
0.0
100
AcDbText
  0
POLYLINE
  5
2E5
100
AcDbEntity
  8
LAY-6
  6
CONTINUOUS
 62
     1
100
AcDb2dPolyline
 66
     1
 10
0.0
 20
0.0
 30
0.0
 70
   128
  0
VERTEX
  5
2E6
100
AcDbEntity
  8
LAY-6
  6
CONTINUOUS
 62
     1
100
AcDbVertex
100
AcDb2dVertex
 10
240.0
 20
476.0
 30
0.0
  0
VERTEX
  5
2E7
100
AcDbEntity
  8
LAY-6
  6
CONTINUOUS
 62
     1
100
AcDbVertex
100
AcDb2dVertex
 10
257.803897
 20
458.196103
 30
0.0
  0
VERTEX
  5
2E8
100
AcDbEntity
  8
LAY-6
  6
CONTINUOUS
 62
     1
100
AcDbVertex
100
AcDb2dVertex
 10
319.9
 20
458.196103
 30
0.0
  0
SEQEND
  5
2E9
100
AcDbEntity
  8
LAY-6
  6
CONTINUOUS
 62
     1
  0
LINE
  5
2EA
100
AcDbEntity
  8
LAY-6
  6
CONTINUOUS
 62
     1
100
AcDbLine
 10
241.649916
 20
474.821489
 30
0.0
 11
240.0
 21
476.0
 31
0.0
  0
LINE
  5
2EB
100
AcDbEntity
  8
LAY-6
  6
CONTINUOUS
 62
     1
100
AcDbLine
 10
240.0
 20
476.0
 30
0.0
 11
241.178511
 21
474.350084
 31
0.0
  0
TEXT
  5
2EC
100
AcDbEntity
  8
LAY-6
  6
CONTINUOUS
 62
     2
100
AcDbText
 10
419.6
 20
542.2
 30
0.0
 40
5.0
  1
３２
 41
0.672
  7
EXCADSTD
 72
     5
 11
426.9328
 21
542.2
 31
0.0
100
AcDbText
  0
LINE
  5
2ED
100
AcDbEntity
  8
LAY-6
  6
CONTINUOUS
 62
     1
100
AcDbLine
 10
407.6
 20
501.0
 30
0.0
 11
407.6
 21
543.2
 31
0.0
  0
LINE
  5
2EE
100
AcDbEntity
  8
LAY-6
  6
CONTINUOUS
 62
     1
100
AcDbLine
 10
439.6
 20
501.0
 30
0.0
 11
439.6
 21
543.2
 31
0.0
  0
LINE
  5
2EF
100
AcDbEntity
  8
LAY-6
  6
CONTINUOUS
 62
     1
100
AcDbLine
 10
407.6
 20
541.7
 30
0.0
 11
439.6
 21
541.7
 31
0.0
  0
LINE
  5
2F0
100
AcDbEntity
  8
LAY-6
  6
CONTINUOUS
 62
     1
100
AcDbLine
 10
409.6
 20
542.033333
 30
0.0
 11
407.6
 21
541.7
 31
0.0
  0
LINE
  5
2F1
100
AcDbEntity
  8
LAY-6
  6
CONTINUOUS
 62
     1
100
AcDbLine
 10
407.6
 20
541.7
 30
0.0
 11
409.6
 21
541.366667
 31
0.0
  0
LINE
  5
2F2
100
AcDbEntity
  8
LAY-6
  6
CONTINUOUS
 62
     1
100
AcDbLine
 10
437.6
 20
541.366667
 30
0.0
 11
439.6
 21
541.7
 31
0.0
  0
LINE
  5
2F3
100
AcDbEntity
  8
LAY-6
  6
CONTINUOUS
 62
     1
100
AcDbLine
 10
439.6
 20
541.7
 30
0.0
 11
437.6
 21
542.033333
 31
0.0
  0
TEXT
  5
2F4
100
AcDbEntity
  8
LAY-6
  6
CONTINUOUS
 62
     2
100
AcDbText
 10
419.6
 20
465.9
 30
0.0
 40
5.0
  1
２５
 41
0.672
  7
EXCADSTD
 72
     5
 11
426.9328
 21
465.9
 31
0.0
100
AcDbText
  0
LINE
  5
2F5
100
AcDbEntity
  8
LAY-6
  6
CONTINUOUS
 62
     1
100
AcDbLine
 10
436.1
 20
483.00003
 30
0.0
 11
436.1
 21
463.9
 31
0.0
  0
LINE
  5
2F6
100
AcDbEntity
  8
LAY-6
  6
CONTINUOUS
 62
     1
100
AcDbLine
 10
411.1
 20
465.4
 30
0.0
 11
436.1
 21
465.4
 31
0.0
  0
LINE
  5
2F7
100
AcDbEntity
  8
LAY-6
  6
CONTINUOUS
 62
     1
100
AcDbLine
 10
413.1
 20
465.733333
 30
0.0
 11
411.1
 21
465.4
 31
0.0
  0
LINE
  5
2F8
100
AcDbEntity
  8
LAY-6
  6
CONTINUOUS
 62
     1
100
AcDbLine
 10
411.1
 20
465.4
 30
0.0
 11
413.1
 21
465.066667
 31
0.0
  0
LINE
  5
2F9
100
AcDbEntity
  8
LAY-6
  6
CONTINUOUS
 62
     1
100
AcDbLine
 10
434.1
 20
465.066667
 30
0.0
 11
436.1
 21
465.4
 31
0.0
  0
LINE
  5
2FA
100
AcDbEntity
  8
LAY-6
  6
CONTINUOUS
 62
     1
100
AcDbLine
 10
436.1
 20
465.4
 30
0.0
 11
434.1
 21
465.733333
 31
0.0
  0
LINE
  5
2FB
100
AcDbEntity
  8
LAY-6
  6
CONTINUOUS
 62
     1
100
AcDbLine
 10
411.1
 20
483.00003
 30
0.0
 11
411.1
 21
463.9
 31
0.0
  0
LINE
  5
2FC
100
AcDbEntity
  8
LAY-6
  6
CONTINUOUS
 62
     1
100
AcDbLine
 10
380.4
 20
483.0
 30
0.0
 11
380.4
 21
492.0
 31
0.0
  0
LINE
  5
2FD
100
AcDbEntity
  8
LAY-6
  6
CONTINUOUS
 62
     1
100
AcDbLine
 10
380.066667
 20
485.0
 30
0.0
 11
380.4
 21
483.0
 31
0.0
  0
LINE
  5
2FE
100
AcDbEntity
  8
LAY-6
  6
CONTINUOUS
 62
     1
100
AcDbLine
 10
380.4
 20
483.0
 30
0.0
 11
380.733333
 21
485.0
 31
0.0
  0
LINE
  5
2FF
100
AcDbEntity
  8
LAY-6
  6
CONTINUOUS
 62
     1
100
AcDbLine
 10
380.733333
 20
490.0
 30
0.0
 11
380.4
 21
492.0
 31
0.0
  0
LINE
  5
300
100
AcDbEntity
  8
LAY-6
  6
CONTINUOUS
 62
     1
100
AcDbLine
 10
380.4
 20
492.0
 30
0.0
 11
380.066667
 21
490.0
 31
0.0
  0
TEXT
  5
301
100
AcDbEntity
  8
LAY-6
  6
CONTINUOUS
 62
     2
100
AcDbText
 10
379.9
 20
485.5
 30
0.0
 40
5.0
  1
９
 50
90.0
 41
0.672
  7
EXCADSTD
 72
     5
 11
379.9
 21
488.7
 31
0.0
100
AcDbText
  0
LINE
  5
302
100
AcDbEntity
  8
LAY-6
  6
CONTINUOUS
 62
     1
100
AcDbLine
 10
411.1
 20
483.0
 30
0.0
 11
378.9
 21
483.0
 31
0.0
  0
LINE
  5
303
100
AcDbEntity
  8
LAY-6
  6
CONTINUOUS
 62
     1
100
AcDbLine
 10
411.1
 20
492.0
 30
0.0
 11
378.9
 21
492.0
 31
0.0
  0
LINE
  5
304
100
AcDbEntity
  8
LAY-6
  6
CONTINUOUS
 62
     1
100
AcDbLine
 10
393.5
 20
495.0
 30
0.0
 11
383.6
 21
495.0
 31
0.0
  0
LINE
  5
305
100
AcDbEntity
  8
LAY-6
  6
CONTINUOUS
 62
     1
100
AcDbLine
 10
380.4
 20
495.0
 30
0.0
 11
380.4
 21
533.0
 31
0.0
  0
LINE
  5
306
100
AcDbEntity
  8
LAY-6
  6
CONTINUOUS
 62
     1
100
AcDbLine
 10
380.066667
 20
497.0
 30
0.0
 11
380.4
 21
495.0
 31
0.0
  0
LINE
  5
307
100
AcDbEntity
  8
LAY-6
  6
CONTINUOUS
 62
     1
100
AcDbLine
 10
380.4
 20
495.0
 30
0.0
 11
380.733333
 21
497.0
 31
0.0
  0
LINE
  5
308
100
AcDbEntity
  8
LAY-6
  6
CONTINUOUS
 62
     1
100
AcDbLine
 10
380.733333
 20
531.0
 30
0.0
 11
380.4
 21
533.0
 31
0.0
  0
LINE
  5
309
100
AcDbEntity
  8
LAY-6
  6
CONTINUOUS
 62
     1
100
AcDbLine
 10
380.4
 20
533.0
 30
0.0
 11
380.066667
 21
531.0
 31
0.0
  0
TEXT
  5
30A
100
AcDbEntity
  8
LAY-6
  6
CONTINUOUS
 62
     2
100
AcDbText
 10
379.9
 20
510.0
 30
0.0
 40
5.0
  1
３８
 50
90.0
 41
0.672
  7
EXCADSTD
 72
     5
 11
379.9
 21
517.3328
 31
0.0
100
AcDbText
  0
LINE
  5
30B
100
AcDbEntity
  8
LAY-6
  6
CONTINUOUS
 62
     1
100
AcDbLine
 10
414.149958
 20
533.0
 30
0.0
 11
378.9
 21
533.0
 31
0.0
  0
LINE
  5
30C
100
AcDbEntity
  8
LAY-6
  6
CONTINUOUS
 62
     1
100
AcDbLine
 10
406.6
 20
210.3
 30
0.0
 11
361.5
 21
210.3
 31
0.0
  0
LINE
  5
30D
100
AcDbEntity
  8
LAY-6
  6
CONTINUOUS
 62
     1
100
AcDbLine
 10
406.6
 20
210.3
 30
0.0
 11
378.5
 21
210.3
 31
0.0
  0
LINE
  5
30E
100
AcDbEntity
  8
LAY-6
  6
CONTINUOUS
 62
     1
100
AcDbLine
 10
406.6
 20
210.3
 30
0.0
 11
388.3
 21
210.3
 31
0.0
  0
LINE
  5
30F
100
AcDbEntity
  8
LAY-6
  6
CONTINUOUS
 62
     1
100
AcDbLine
 10
406.6
 20
210.3
 30
0.0
 11
378.5
 21
210.3
 31
0.0
  0
TEXT
  5
310
100
AcDbEntity
  8
LAY-6
  6
CONTINUOUS
 62
     2
100
AcDbText
 10
370.6
 20
192.799993
 30
0.0
 40
5.0
  1
２７
 50
90.0
 41
0.672
  7
EXCADSTD
 72
     5
 11
370.6
 21
200.132792
 31
0.0
100
AcDbText
  0
LINE
  5
311
100
AcDbEntity
  8
LAY-6
  6
CONTINUOUS
 62
     1
100
AcDbLine
 10
406.6
 20
210.3
 30
0.0
 11
369.6
 21
210.3
 31
0.0
  0
LINE
  5
312
100
AcDbEntity
  8
LAY-6
  6
CONTINUOUS
 62
     1
100
AcDbLine
 10
371.1
 20
183.299985
 30
0.0
 11
371.1
 21
210.3
 31
0.0
  0
LINE
  5
313
100
AcDbEntity
  8
LAY-6
  6
CONTINUOUS
 62
     1
100
AcDbLine
 10
370.766667
 20
185.299985
 30
0.0
 11
371.1
 21
183.299985
 31
0.0
  0
LINE
  5
314
100
AcDbEntity
  8
LAY-6
  6
CONTINUOUS
 62
     1
100
AcDbLine
 10
371.1
 20
183.299985
 30
0.0
 11
371.433333
 21
185.299985
 31
0.0
  0
LINE
  5
315
100
AcDbEntity
  8
LAY-6
  6
CONTINUOUS
 62
     1
100
AcDbLine
 10
371.433333
 20
208.3
 30
0.0
 11
371.1
 21
210.3
 31
0.0
  0
LINE
  5
316
100
AcDbEntity
  8
LAY-6
  6
CONTINUOUS
 62
     1
100
AcDbLine
 10
371.1
 20
210.3
 30
0.0
 11
370.766667
 21
208.3
 31
0.0
  0
TEXT
  5
317
100
AcDbEntity
  8
LAY-6
  6
CONTINUOUS
 62
     2
100
AcDbText
 10
387.3
 20
496.1
 30
0.0
 40
5.0
  1
６
 50
90.0
 41
0.672
  7
EXCADSTD
 72
     5
 11
387.3
 21
499.3
 31
0.0
100
AcDbText
  0
LINE
  5
318
100
AcDbEntity
  8
LAY-6
  6
CONTINUOUS
 62
     1
100
AcDbLine
 10
407.1
 20
501.0
 30
0.0
 11
386.6
 21
501.0
 31
0.0
  0
LINE
  5
319
100
AcDbEntity
  8
LAY-6
  6
CONTINUOUS
 62
     1
100
AcDbLine
 10
407.1
 20
495.00003
 30
0.0
 11
376.5
 21
495.00003
 31
0.0
  0
LINE
  5
31A
100
AcDbEntity
  8
LAY-6
  6
CONTINUOUS
 62
     1
100
AcDbLine
 10
387.6
 20
501.0
 30
0.0
 11
387.6
 21
495.00003
 31
0.0
  0
LINE
  5
31B
100
AcDbEntity
  8
LAY-6
  6
CONTINUOUS
 62
     1
100
AcDbLine
 10
387.933333
 20
499.0
 30
0.0
 11
387.6
 21
501.0
 31
0.0
  0
LINE
  5
31C
100
AcDbEntity
  8
LAY-6
  6
CONTINUOUS
 62
     1
100
AcDbLine
 10
387.6
 20
501.0
 30
0.0
 11
387.266667
 21
499.0
 31
0.0
  0
LINE
  5
31D
100
AcDbEntity
  8
LAY-6
  6
CONTINUOUS
 62
     1
100
AcDbLine
 10
387.266667
 20
497.00003
 30
0.0
 11
387.6
 21
495.00003
 31
0.0
  0
LINE
  5
31E
100
AcDbEntity
  8
LAY-6
  6
CONTINUOUS
 62
     1
100
AcDbLine
 10
387.6
 20
495.00003
 30
0.0
 11
387.933333
 21
497.00003
 31
0.0
  0
TEXT
  5
31F
100
AcDbEntity
  8
LAY-6
  6
CONTINUOUS
 62
     2
100
AcDbText
 10
372.1
 20
490.0
 30
0.0
 40
5.0
  1
３～５
 50
90.0
 41
0.672
  7
EXCADSTD
 72
     5
 11
372.1
 21
502.0
 31
0.0
100
AcDbText
  0
POLYLINE
  5
320
100
AcDbEntity
  8
LAY-6
  6
CONTINUOUS
 62
     1
100
AcDb2dPolyline
 66
     1
 10
0.0
 20
0.0
 30
0.0
 70
   128
  0
VERTEX
  5
321
100
AcDbEntity
  8
LAY-6
  6
CONTINUOUS
 62
     1
100
AcDbVertex
100
AcDb2dVertex
 10
403.85
 20
301.092983
 30
0.0
  0
VERTEX
  5
322
100
AcDbEntity
  8
LAY-6
  6
CONTINUOUS
 62
     1
100
AcDbVertex
100
AcDb2dVertex
 10
392.055674
 20
310.830984
 30
0.0
  0
VERTEX
  5
323
100
AcDbEntity
  8
LAY-6
  6
CONTINUOUS
 62
     1
100
AcDbVertex
100
AcDb2dVertex
 10
374.855674
 20
310.830984
 30
0.0
  0
SEQEND
  5
324
100
AcDbEntity
  8
LAY-6
  6
CONTINUOUS
 62
     1
  0
LINE
  5
325
100
AcDbEntity
  8
LAY-6
  6
CONTINUOUS
 62
     1
100
AcDbLine
 10
402.095519
 20
302.109305
 30
0.0
 11
403.85
 21
301.092983
 31
0.0
  0
LINE
  5
326
100
AcDbEntity
  8
LAY-6
  6
CONTINUOUS
 62
     1
100
AcDbLine
 10
403.85
 20
301.092983
 30
0.0
 11
402.519974
 21
302.623389
 31
0.0
  0
TEXT
  5
327
100
AcDbEntity
  8
LAY-6
  6
CONTINUOUS
 62
     2
100
AcDbText
 10
374.855674
 20
310.830984
 30
0.0
 40
5.0
  1
カクシ蓋
 41
0.672
  7
EXCADSTD
 72
     5
 11
390.855674
 21
310.830984
 31
0.0
100
AcDbText
  0
TEXT
  5
328
100
AcDbEntity
  8
LAY-6
  6
CONTINUOUS
 62
     2
100
AcDbText
 10
419.6
 20
162.6
 30
0.0
 40
5.0
  1
４４
 41
0.672
  7
EXCADSTD
 72
     5
 11
426.9328
 21
162.6
 31
0.0
100
AcDbText
  0
LINE
  5
329
100
AcDbEntity
  8
LAY-6
  6
CONTINUOUS
 62
     1
100
AcDbLine
 10
401.6
 20
182.8
 30
0.0
 11
401.6
 21
161.1
 31
0.0
  0
LINE
  5
32A
100
AcDbEntity
  8
LAY-6
  6
CONTINUOUS
 62
     1
100
AcDbLine
 10
445.6
 20
182.8
 30
0.0
 11
445.6
 21
161.1
 31
0.0
  0
LINE
  5
32B
100
AcDbEntity
  8
LAY-6
  6
CONTINUOUS
 62
     1
100
AcDbLine
 10
401.6
 20
162.1
 30
0.0
 11
445.6
 21
162.1
 31
0.0
  0
LINE
  5
32C
100
AcDbEntity
  8
LAY-6
  6
CONTINUOUS
 62
     1
100
AcDbLine
 10
403.6
 20
162.433333
 30
0.0
 11
401.6
 21
162.1
 31
0.0
  0
LINE
  5
32D
100
AcDbEntity
  8
LAY-6
  6
CONTINUOUS
 62
     1
100
AcDbLine
 10
401.6
 20
162.1
 30
0.0
 11
403.6
 21
161.766667
 31
0.0
  0
LINE
  5
32E
100
AcDbEntity
  8
LAY-6
  6
CONTINUOUS
 62
     1
100
AcDbLine
 10
443.6
 20
161.766667
 30
0.0
 11
445.6
 21
162.1
 31
0.0
  0
LINE
  5
32F
100
AcDbEntity
  8
LAY-6
  6
CONTINUOUS
 62
     1
100
AcDbLine
 10
445.6
 20
162.1
 30
0.0
 11
443.6
 21
162.433333
 31
0.0
  0
TEXT
  5
330
100
AcDbEntity
  8
LAY-6
  6
CONTINUOUS
 62
     2
100
AcDbText
 10
370.6
 20
176.25
 30
0.0
 40
5.0
  1
(６)
 50
90.0
 41
0.504889
  7
EXCADSTD
 72
     5
 11
370.6
 21
183.5828
 31
0.0
100
AcDbText
  0
LINE
  5
331
100
AcDbEntity
  8
LAY-6
  6
CONTINUOUS
 62
     1
100
AcDbLine
 10
420.1
 20
177.15
 30
0.0
 11
370.1
 21
177.15
 31
0.0
  0
LINE
  5
332
100
AcDbEntity
  8
LAY-6
  6
CONTINUOUS
 62
     1
100
AcDbLine
 10
401.1
 20
183.3
 30
0.0
 11
370.1
 21
183.3
 31
0.0
  0
LINE
  5
333
100
AcDbEntity
  8
LAY-6
  6
CONTINUOUS
 62
     1
100
AcDbLine
 10
371.1
 20
177.15
 30
0.0
 11
371.1
 21
183.3
 31
0.0
  0
LINE
  5
334
100
AcDbEntity
  8
LAY-6
  6
CONTINUOUS
 62
     1
100
AcDbLine
 10
370.766667
 20
179.15
 30
0.0
 11
371.1
 21
177.15
 31
0.0
  0
LINE
  5
335
100
AcDbEntity
  8
LAY-6
  6
CONTINUOUS
 62
     1
100
AcDbLine
 10
371.1
 20
177.15
 30
0.0
 11
371.433333
 21
179.15
 31
0.0
  0
LINE
  5
336
100
AcDbEntity
  8
LAY-6
  6
CONTINUOUS
 62
     1
100
AcDbLine
 10
371.433333
 20
181.3
 30
0.0
 11
371.1
 21
183.3
 31
0.0
  0
LINE
  5
337
100
AcDbEntity
  8
LAY-6
  6
CONTINUOUS
 62
     1
100
AcDbLine
 10
371.1
 20
183.3
 30
0.0
 11
370.766667
 21
181.3
 31
0.0
  0
TEXT
  5
338
100
AcDbEntity
  8
LAY-6
  6
CONTINUOUS
 62
     2
100
AcDbText
 10
370.6
 20
211.3
 30
0.0
 40
5.0
  1
１０
 50
90.0
 41
0.672
  7
EXCADSTD
 72
     5
 11
370.6
 21
218.6328
 31
0.0
100
AcDbText
  0
LINE
  5
339
100
AcDbEntity
  8
LAY-6
  6
CONTINUOUS
 62
     1
100
AcDbLine
 10
405.1
 20
220.3
 30
0.0
 11
370.1
 21
220.3
 31
0.0
  0
LINE
  5
33A
100
AcDbEntity
  8
LAY-6
  6
CONTINUOUS
 62
     1
100
AcDbLine
 10
371.1
 20
220.3
 30
0.0
 11
371.1
 21
210.3
 31
0.0
  0
LINE
  5
33B
100
AcDbEntity
  8
LAY-6
  6
CONTINUOUS
 62
     1
100
AcDbLine
 10
371.433333
 20
218.3
 30
0.0
 11
371.1
 21
220.3
 31
0.0
  0
LINE
  5
33C
100
AcDbEntity
  8
LAY-6
  6
CONTINUOUS
 62
     1
100
AcDbLine
 10
371.1
 20
220.3
 30
0.0
 11
370.766667
 21
218.3
 31
0.0
  0
LINE
  5
33D
100
AcDbEntity
  8
LAY-6
  6
CONTINUOUS
 62
     1
100
AcDbLine
 10
370.766667
 20
212.3
 30
0.0
 11
371.1
 21
210.3
 31
0.0
  0
LINE
  5
33E
100
AcDbEntity
  8
LAY-6
  6
CONTINUOUS
 62
     1
100
AcDbLine
 10
371.1
 20
210.3
 30
0.0
 11
371.433333
 21
212.3
 31
0.0
  0
TEXT
  5
33F
100
AcDbEntity
  8
LAY-6
  6
CONTINUOUS
 62
     2
100
AcDbText
 10
417.6
 20
338.5
 30
0.0
 40
5.0
  1
φ
 41
0.672
  7
EXCADSTD
 72
     5
 11
420.8
 21
338.5
 31
0.0
100
AcDbText
  0
TEXT
  5
340
100
AcDbEntity
  8
LAY-6
  6
CONTINUOUS
 62
     2
100
AcDbText
 10
421.6
 20
338.5
 30
0.0
 40
5.0
  1
２８
 41
0.672
  7
EXCADSTD
 72
     5
 11
428.9328
 21
338.5
 31
0.0
100
AcDbText
  0
LINE
  5
341
100
AcDbEntity
  8
LAY-6
  6
CONTINUOUS
 62
     1
100
AcDbLine
 10
409.6
 20
338.0
 30
0.0
 11
437.6
 21
338.0
 31
0.0
  0
LINE
  5
342
100
AcDbEntity
  8
LAY-6
  6
CONTINUOUS
 62
     1
100
AcDbLine
 10
411.6
 20
338.333333
 30
0.0
 11
409.6
 21
338.0
 31
0.0
  0
LINE
  5
343
100
AcDbEntity
  8
LAY-6
  6
CONTINUOUS
 62
     1
100
AcDbLine
 10
409.6
 20
338.0
 30
0.0
 11
411.6
 21
337.666667
 31
0.0
  0
LINE
  5
344
100
AcDbEntity
  8
LAY-6
  6
CONTINUOUS
 62
     1
100
AcDbLine
 10
435.6
 20
337.666667
 30
0.0
 11
437.6
 21
338.0
 31
0.0
  0
LINE
  5
345
100
AcDbEntity
  8
LAY-6
  6
CONTINUOUS
 62
     1
100
AcDbLine
 10
437.6
 20
338.0
 30
0.0
 11
435.6
 21
338.333333
 31
0.0
  0
POLYLINE
  5
346
100
AcDbEntity
  8
LAY-6
  6
CONTINUOUS
 62
     1
100
AcDb2dPolyline
 66
     1
 10
0.0
 20
0.0
 30
0.0
 70
   128
  0
VERTEX
  5
347
100
AcDbEntity
  8
LAY-6
  6
CONTINUOUS
 62
     1
100
AcDbVertex
100
AcDb2dVertex
 10
403.85
 20
422.0
 30
0.0
  0
VERTEX
  5
348
100
AcDbEntity
  8
LAY-6
  6
CONTINUOUS
 62
     1
100
AcDbVertex
100
AcDb2dVertex
 10
392.055674
 20
431.738001
 30
0.0
  0
VERTEX
  5
349
100
AcDbEntity
  8
LAY-6
  6
CONTINUOUS
 62
     1
100
AcDbVertex
100
AcDb2dVertex
 10
374.855674
 20
431.738001
 30
0.0
  0
SEQEND
  5
34A
100
AcDbEntity
  8
LAY-6
  6
CONTINUOUS
 62
     1
  0
LINE
  5
34B
100
AcDbEntity
  8
LAY-6
  6
CONTINUOUS
 62
     1
100
AcDbLine
 10
402.095519
 20
423.016321
 30
0.0
 11
403.85
 21
422.0
 31
0.0
  0
LINE
  5
34C
100
AcDbEntity
  8
LAY-6
  6
CONTINUOUS
 62
     1
100
AcDbLine
 10
403.85
 20
422.0
 30
0.0
 11
402.519974
 21
423.530406
 31
0.0
  0
TEXT
  5
34D
100
AcDbEntity
  8
LAY-6
  6
CONTINUOUS
 62
     2
100
AcDbText
 10
374.855674
 20
431.738001
 30
0.0
 40
5.0
  1
カクシ蓋
 41
0.672
  7
EXCADSTD
 72
     5
 11
390.855674
 21
431.738001
 31
0.0
100
AcDbText
  0
POLYLINE
  5
34E
100
AcDbEntity
  8
LAY-6
  6
CONTINUOUS
 62
     1
100
AcDb2dPolyline
 66
     1
 10
0.0
 20
0.0
 30
0.0
 70
   128
  0
VERTEX
  5
34F
100
AcDbEntity
  8
LAY-6
  6
CONTINUOUS
 62
     1
100
AcDbVertex
100
AcDb2dVertex
 10
471.3
 20
181.9
 30
0.0
  0
VERTEX
  5
350
100
AcDbEntity
  8
LAY-6
  6
CONTINUOUS
 62
     1
100
AcDbVertex
100
AcDb2dVertex
 10
482.45
 20
170.75
 30
0.0
  0
VERTEX
  5
351
100
AcDbEntity
  8
LAY-6
  6
CONTINUOUS
 62
     1
100
AcDbVertex
100
AcDb2dVertex
 10
495.9
 20
170.75
 30
0.0
  0
SEQEND
  5
352
100
AcDbEntity
  8
LAY-6
  6
CONTINUOUS
 62
     1
  0
LINE
  5
353
100
AcDbEntity
  8
LAY-6
  6
CONTINUOUS
 62
     1
100
AcDbLine
 10
472.949916
 20
180.721489
 30
0.0
 11
471.3
 21
181.9
 31
0.0
  0
LINE
  5
354
100
AcDbEntity
  8
LAY-6
  6
CONTINUOUS
 62
     1
100
AcDbLine
 10
471.3
 20
181.9
 30
0.0
 11
472.478511
 21
180.250084
 31
0.0
  0
TEXT
  5
355
100
AcDbEntity
  8
LAY-6
  6
CONTINUOUS
 62
     2
100
AcDbText
 10
485.175
 20
171.25
 30
0.0
 40
5.0
  1
鉄筋
 41
0.672
  7
EXCADSTD
 72
     5
 11
492.5078
 21
171.25
 31
0.0
100
AcDbText
  0
LINE
  5
356
100
AcDbEntity
  8
LAY-6
  6
CONTINUOUS
 62
     1
100
AcDbLine
 10
103.749985
 20
477.499969
 30
0.0
 11
103.749985
 21
468.0
 31
0.0
  0
LINE
  5
357
100
AcDbEntity
  8
LAY-6
  6
CONTINUOUS
 62
     1
100
AcDbLine
 10
116.249985
 20
477.499969
 30
0.0
 11
116.249985
 21
468.0
 31
0.0
  0
TEXT
  5
358
100
AcDbEntity
  8
LAY-6
  6
CONTINUOUS
 62
     2
100
AcDbText
 10
100.999985
 20
469.5
 30
0.0
 40
5.0
  1
φ
 41
0.672
  7
EXCADSTD
 72
     5
 11
104.199985
 21
469.5
 31
0.0
100
AcDbText
  0
TEXT
  5
359
100
AcDbEntity
  8
LAY-6
  6
CONTINUOUS
 62
     2
100
AcDbText
 10
104.999985
 20
469.5
 30
0.0
 40
5.0
  1
１２.５
 41
0.616
  7
EXCADSTD
 72
     5
 11
118.999985
 21
469.5
 31
0.0
100
AcDbText
  0
LINE
  5
35A
100
AcDbEntity
  8
LAY-6
  6
CONTINUOUS
 62
     1
100
AcDbLine
 10
103.749985
 20
469.0
 30
0.0
 11
116.249985
 21
469.0
 31
0.0
  0
LINE
  5
35B
100
AcDbEntity
  8
LAY-6
  6
CONTINUOUS
 62
     1
100
AcDbLine
 10
105.749985
 20
469.333333
 30
0.0
 11
103.749985
 21
469.0
 31
0.0
  0
LINE
  5
35C
100
AcDbEntity
  8
LAY-6
  6
CONTINUOUS
 62
     1
100
AcDbLine
 10
103.749985
 20
469.0
 30
0.0
 11
105.749985
 21
468.666667
 31
0.0
  0
LINE
  5
35D
100
AcDbEntity
  8
LAY-6
  6
CONTINUOUS
 62
     1
100
AcDbLine
 10
114.249985
 20
468.666667
 30
0.0
 11
116.249985
 21
469.0
 31
0.0
  0
LINE
  5
35E
100
AcDbEntity
  8
LAY-6
  6
CONTINUOUS
 62
     1
100
AcDbLine
 10
116.249985
 20
469.0
 30
0.0
 11
114.249985
 21
469.333333
 31
0.0
  0
TEXT
  5
35F
100
AcDbEntity
  8
LAY-6
  6
CONTINUOUS
 62
     2
100
AcDbText
 10
104.000016
 20
518.6
 30
0.0
 40
5.0
  1
φ
 41
0.672
  7
EXCADSTD
 72
     5
 11
107.200016
 21
518.6
 31
0.0
100
AcDbText
  0
TEXT
  5
360
100
AcDbEntity
  8
LAY-6
  6
CONTINUOUS
 62
     2
100
AcDbText
 10
108.000016
 20
518.6
 30
0.0
 40
5.0
  1
１９
 41
0.672
  7
EXCADSTD
 72
     5
 11
115.332816
 21
518.6
 31
0.0
100
AcDbText
  0
LINE
  5
361
100
AcDbEntity
  8
LAY-6
  6
CONTINUOUS
 62
     1
100
AcDbLine
 10
100.500019
 20
518.1
 30
0.0
 11
119.500013
 21
518.1
 31
0.0
  0
LINE
  5
362
100
AcDbEntity
  8
LAY-6
  6
CONTINUOUS
 62
     1
100
AcDbLine
 10
102.500019
 20
518.433333
 30
0.0
 11
100.500019
 21
518.1
 31
0.0
  0
LINE
  5
363
100
AcDbEntity
  8
LAY-6
  6
CONTINUOUS
 62
     1
100
AcDbLine
 10
100.500019
 20
518.1
 30
0.0
 11
102.500019
 21
517.766667
 31
0.0
  0
LINE
  5
364
100
AcDbEntity
  8
LAY-6
  6
CONTINUOUS
 62
     1
100
AcDbLine
 10
117.500013
 20
517.766667
 30
0.0
 11
119.500013
 21
518.1
 31
0.0
  0
LINE
  5
365
100
AcDbEntity
  8
LAY-6
  6
CONTINUOUS
 62
     1
100
AcDbLine
 10
119.500013
 20
518.1
 30
0.0
 11
117.500013
 21
518.433333
 31
0.0
  0
LINE
  5
366
100
AcDbEntity
  8
LAY-6
  6
CONTINUOUS
 62
     1
100
AcDbLine
 10
110.0
 20
533.499961
 30
0.0
 11
110.0
 21
544.6
 31
0.0
  0
LINE
  5
367
100
AcDbEntity
  8
LAY-6
  6
CONTINUOUS
 62
     1
100
AcDbLine
 10
125.0
 20
506.0
 30
0.0
 11
125.0
 21
544.6
 31
0.0
  0
TEXT
  5
368
100
AcDbEntity
  8
LAY-6
  6
CONTINUOUS
 62
     2
100
AcDbText
 10
113.5
 20
544.1
 30
0.0
 40
5.0
  1
１５
 41
0.672
  7
EXCADSTD
 72
     5
 11
120.8328
 21
544.1
 31
0.0
100
AcDbText
  0
LINE
  5
369
100
AcDbEntity
  8
LAY-6
  6
CONTINUOUS
 62
     1
100
AcDbLine
 10
110.0
 20
543.6
 30
0.0
 11
125.0
 21
543.6
 31
0.0
  0
LINE
  5
36A
100
AcDbEntity
  8
LAY-6
  6
CONTINUOUS
 62
     1
100
AcDbLine
 10
112.0
 20
543.933333
 30
0.0
 11
110.0
 21
543.6
 31
0.0
  0
LINE
  5
36B
100
AcDbEntity
  8
LAY-6
  6
CONTINUOUS
 62
     1
100
AcDbLine
 10
110.0
 20
543.6
 30
0.0
 11
112.0
 21
543.266667
 31
0.0
  0
LINE
  5
36C
100
AcDbEntity
  8
LAY-6
  6
CONTINUOUS
 62
     1
100
AcDbLine
 10
123.0
 20
543.266667
 30
0.0
 11
125.0
 21
543.6
 31
0.0
  0
LINE
  5
36D
100
AcDbEntity
  8
LAY-6
  6
CONTINUOUS
 62
     1
100
AcDbLine
 10
125.0
 20
543.6
 30
0.0
 11
123.0
 21
543.933333
 31
0.0
  0
LINE
  5
36E
100
AcDbEntity
  8
LAY-6
  6
CONTINUOUS
 62
     1
100
AcDbLine
 10
165.0
 20
506.0
 30
0.0
 11
165.0
 21
544.6
 31
0.0
  0
TEXT
  5
36F
100
AcDbEntity
  8
LAY-6
  6
CONTINUOUS
 62
     2
100
AcDbText
 10
141.0
 20
544.1
 30
0.0
 40
5.0
  1
４０
 41
0.672
  7
EXCADSTD
 72
     5
 11
148.3328
 21
544.1
 31
0.0
100
AcDbText
  0
LINE
  5
370
100
AcDbEntity
  8
LAY-6
  6
CONTINUOUS
 62
     1
100
AcDbLine
 10
125.0
 20
543.6
 30
0.0
 11
165.0
 21
543.6
 31
0.0
  0
LINE
  5
371
100
AcDbEntity
  8
LAY-6
  6
CONTINUOUS
 62
     1
100
AcDbLine
 10
127.0
 20
543.933333
 30
0.0
 11
125.0
 21
543.6
 31
0.0
  0
LINE
  5
372
100
AcDbEntity
  8
LAY-6
  6
CONTINUOUS
 62
     1
100
AcDbLine
 10
125.0
 20
543.6
 30
0.0
 11
127.0
 21
543.266667
 31
0.0
  0
LINE
  5
373
100
AcDbEntity
  8
LAY-6
  6
CONTINUOUS
 62
     1
100
AcDbLine
 10
163.0
 20
543.266667
 30
0.0
 11
165.0
 21
543.6
 31
0.0
  0
LINE
  5
374
100
AcDbEntity
  8
LAY-6
  6
CONTINUOUS
 62
     1
100
AcDbLine
 10
165.0
 20
543.6
 30
0.0
 11
163.0
 21
543.933333
 31
0.0
  0
LINE
  5
375
100
AcDbEntity
  8
LAY-6
  6
CONTINUOUS
 62
     1
100
AcDbLine
 10
226.0
 20
506.0
 30
0.0
 11
226.0
 21
544.6
 31
0.0
  0
TEXT
  5
376
100
AcDbEntity
  8
LAY-6
  6
CONTINUOUS
 62
     2
100
AcDbText
 10
191.5
 20
544.1
 30
0.0
 40
5.0
  1
６１
 41
0.672
  7
EXCADSTD
 72
     5
 11
198.8328
 21
544.1
 31
0.0
100
AcDbText
  0
LINE
  5
377
100
AcDbEntity
  8
LAY-6
  6
CONTINUOUS
 62
     1
100
AcDbLine
 10
165.0
 20
543.6
 30
0.0
 11
226.0
 21
543.6
 31
0.0
  0
LINE
  5
378
100
AcDbEntity
  8
LAY-6
  6
CONTINUOUS
 62
     1
100
AcDbLine
 10
167.0
 20
543.933333
 30
0.0
 11
165.0
 21
543.6
 31
0.0
  0
LINE
  5
379
100
AcDbEntity
  8
LAY-6
  6
CONTINUOUS
 62
     1
100
AcDbLine
 10
165.0
 20
543.6
 30
0.0
 11
167.0
 21
543.266667
 31
0.0
  0
LINE
  5
37A
100
AcDbEntity
  8
LAY-6
  6
CONTINUOUS
 62
     1
100
AcDbLine
 10
224.0
 20
543.266667
 30
0.0
 11
226.0
 21
543.6
 31
0.0
  0
LINE
  5
37B
100
AcDbEntity
  8
LAY-6
  6
CONTINUOUS
 62
     1
100
AcDbLine
 10
226.0
 20
543.6
 30
0.0
 11
224.0
 21
543.933333
 31
0.0
  0
LINE
  5
37C
100
AcDbEntity
  8
LAY-6
  6
CONTINUOUS
 62
     1
100
AcDbLine
 10
245.0
 20
506.0
 30
0.0
 11
245.0
 21
544.6
 31
0.0
  0
TEXT
  5
37D
100
AcDbEntity
  8
LAY-6
  6
CONTINUOUS
 62
     2
100
AcDbText
 10
231.5
 20
544.1
 30
0.0
 40
5.0
  1
１９
 41
0.672
  7
EXCADSTD
 72
     5
 11
238.8328
 21
544.1
 31
0.0
100
AcDbText
  0
LINE
  5
37E
100
AcDbEntity
  8
LAY-6
  6
CONTINUOUS
 62
     1
100
AcDbLine
 10
226.0
 20
543.6
 30
0.0
 11
245.0
 21
543.6
 31
0.0
  0
LINE
  5
37F
100
AcDbEntity
  8
LAY-6
  6
CONTINUOUS
 62
     1
100
AcDbLine
 10
228.0
 20
543.933333
 30
0.0
 11
226.0
 21
543.6
 31
0.0
  0
LINE
  5
380
100
AcDbEntity
  8
LAY-6
  6
CONTINUOUS
 62
     1
100
AcDbLine
 10
226.0
 20
543.6
 30
0.0
 11
228.0
 21
543.266667
 31
0.0
  0
LINE
  5
381
100
AcDbEntity
  8
LAY-6
  6
CONTINUOUS
 62
     1
100
AcDbLine
 10
243.0
 20
543.266667
 30
0.0
 11
245.0
 21
543.6
 31
0.0
  0
LINE
  5
382
100
AcDbEntity
  8
LAY-6
  6
CONTINUOUS
 62
     1
100
AcDbLine
 10
245.0
 20
543.6
 30
0.0
 11
243.0
 21
543.933333
 31
0.0
  0
LINE
  5
383
100
AcDbEntity
  8
LAY-6
  6
CONTINUOUS
 62
     1
100
AcDbLine
 10
110.0
 20
476.499969
 30
0.0
 11
110.0
 21
456.1
 31
0.0
  0
LINE
  5
384
100
AcDbEntity
  8
LAY-6
  6
CONTINUOUS
 62
     1
100
AcDbLine
 10
130.0
 20
479.3
 30
0.0
 11
130.0
 21
456.1
 31
0.0
  0
TEXT
  5
385
100
AcDbEntity
  8
LAY-6
  6
CONTINUOUS
 62
     2
100
AcDbText
 10
116.0
 20
457.6
 30
0.0
 40
5.0
  1
２０
 41
0.672
  7
EXCADSTD
 72
     5
 11
123.3328
 21
457.6
 31
0.0
100
AcDbText
  0
LINE
  5
386
100
AcDbEntity
  8
LAY-6
  6
CONTINUOUS
 62
     1
100
AcDbLine
 10
110.0
 20
457.1
 30
0.0
 11
130.0
 21
457.1
 31
0.0
  0
LINE
  5
387
100
AcDbEntity
  8
LAY-6
  6
CONTINUOUS
 62
     1
100
AcDbLine
 10
112.0
 20
457.433333
 30
0.0
 11
110.0
 21
457.1
 31
0.0
  0
LINE
  5
388
100
AcDbEntity
  8
LAY-6
  6
CONTINUOUS
 62
     1
100
AcDbLine
 10
110.0
 20
457.1
 30
0.0
 11
112.0
 21
456.766667
 31
0.0
  0
LINE
  5
389
100
AcDbEntity
  8
LAY-6
  6
CONTINUOUS
 62
     1
100
AcDbLine
 10
128.0
 20
456.766667
 30
0.0
 11
130.0
 21
457.1
 31
0.0
  0
LINE
  5
38A
100
AcDbEntity
  8
LAY-6
  6
CONTINUOUS
 62
     1
100
AcDbLine
 10
130.0
 20
457.1
 30
0.0
 11
128.0
 21
457.433333
 31
0.0
  0
LINE
  5
38B
100
AcDbEntity
  8
LAY-6
  6
CONTINUOUS
 62
     1
100
AcDbLine
 10
250.0
 20
479.3
 30
0.0
 11
250.0
 21
456.1
 31
0.0
  0
TEXT
  5
38C
100
AcDbEntity
  8
LAY-6
  6
CONTINUOUS
 62
     2
100
AcDbText
 10
184.0
 20
457.6
 30
0.0
 40
5.0
  1
１２０
 41
0.672
  7
EXCADSTD
 72
     5
 11
196.0
 21
457.6
 31
0.0
100
AcDbText
  0
LINE
  5
38D
100
AcDbEntity
  8
LAY-6
  6
CONTINUOUS
 62
     1
100
AcDbLine
 10
130.0
 20
457.1
 30
0.0
 11
250.0
 21
457.1
 31
0.0
  0
LINE
  5
38E
100
AcDbEntity
  8
LAY-6
  6
CONTINUOUS
 62
     1
100
AcDbLine
 10
132.0
 20
457.433333
 30
0.0
 11
130.0
 21
457.1
 31
0.0
  0
LINE
  5
38F
100
AcDbEntity
  8
LAY-6
  6
CONTINUOUS
 62
     1
100
AcDbLine
 10
130.0
 20
457.1
 30
0.0
 11
132.0
 21
456.766667
 31
0.0
  0
LINE
  5
390
100
AcDbEntity
  8
LAY-6
  6
CONTINUOUS
 62
     1
100
AcDbLine
 10
248.0
 20
456.766667
 30
0.0
 11
250.0
 21
457.1
 31
0.0
  0
LINE
  5
391
100
AcDbEntity
  8
LAY-6
  6
CONTINUOUS
 62
     1
100
AcDbLine
 10
250.0
 20
457.1
 30
0.0
 11
248.0
 21
457.433333
 31
0.0
  0
LINE
  5
392
100
AcDbEntity
  8
LAY-6
  6
CONTINUOUS
 62
     1
100
AcDbLine
 10
120.000013
 20
532.999961
 30
0.0
 11
146.9
 21
532.999961
 31
0.0
  0
TEXT
  5
393
100
AcDbEntity
  8
LAY-6
  6
CONTINUOUS
 62
     2
100
AcDbText
 10
145.4
 20
509.99998
 30
0.0
 40
5.0
  1
３８
 50
90.0
 41
0.672
  7
EXCADSTD
 72
     5
 11
145.4
 21
517.332781
 31
0.0
100
AcDbText
  0
LINE
  5
394
100
AcDbEntity
  8
LAY-6
  6
CONTINUOUS
 62
     1
100
AcDbLine
 10
145.9
 20
532.999961
 30
0.0
 11
145.9
 21
495.0
 31
0.0
  0
LINE
  5
395
100
AcDbEntity
  8
LAY-6
  6
CONTINUOUS
 62
     1
100
AcDbLine
 10
146.233333
 20
530.999961
 30
0.0
 11
145.9
 21
532.999961
 31
0.0
  0
LINE
  5
396
100
AcDbEntity
  8
LAY-6
  6
CONTINUOUS
 62
     1
100
AcDbLine
 10
145.9
 20
532.999961
 30
0.0
 11
145.566667
 21
530.999961
 31
0.0
  0
LINE
  5
397
100
AcDbEntity
  8
LAY-6
  6
CONTINUOUS
 62
     1
100
AcDbLine
 10
145.566667
 20
497.0
 30
0.0
 11
145.9
 21
495.0
 31
0.0
  0
LINE
  5
398
100
AcDbEntity
  8
LAY-6
  6
CONTINUOUS
 62
     1
100
AcDbLine
 10
145.9
 20
495.0
 30
0.0
 11
146.233333
 21
497.0
 31
0.0
  0
LINE
  5
399
100
AcDbEntity
  8
LAY-6
  6
CONTINUOUS
 62
     1
100
AcDbLine
 10
245.5
 20
501.0
 30
0.0
 11
260.9
 21
501.0
 31
0.0
  0
TEXT
  5
39A
100
AcDbEntity
  8
LAY-6
  6
CONTINUOUS
 62
     2
100
AcDbText
 10
259.4
 20
496.0
 30
0.0
 40
5.0
  1
６
 50
90.0
 41
0.672
  7
EXCADSTD
 72
     5
 11
259.4
 21
499.2
 31
0.0
100
AcDbText
  0
LINE
  5
39B
100
AcDbEntity
  8
LAY-6
  6
CONTINUOUS
 62
     1
100
AcDbLine
 10
259.9
 20
501.0
 30
0.0
 11
259.9
 21
495.0
 31
0.0
  0
LINE
  5
39C
100
AcDbEntity
  8
LAY-6
  6
CONTINUOUS
 62
     1
100
AcDbLine
 10
260.233333
 20
499.0
 30
0.0
 11
259.9
 21
501.0
 31
0.0
  0
LINE
  5
39D
100
AcDbEntity
  8
LAY-6
  6
CONTINUOUS
 62
     1
100
AcDbLine
 10
259.9
 20
501.0
 30
0.0
 11
259.566667
 21
499.0
 31
0.0
  0
LINE
  5
39E
100
AcDbEntity
  8
LAY-6
  6
CONTINUOUS
 62
     1
100
AcDbLine
 10
259.566667
 20
497.0
 30
0.0
 11
259.9
 21
495.0
 31
0.0
  0
LINE
  5
39F
100
AcDbEntity
  8
LAY-6
  6
CONTINUOUS
 62
     1
100
AcDbLine
 10
259.9
 20
495.0
 30
0.0
 11
260.233333
 21
497.0
 31
0.0
  0
LINE
  5
3A0
100
AcDbEntity
  8
LAY-6
  6
CONTINUOUS
 62
     1
100
AcDbLine
 10
250.5
 20
483.0
 30
0.0
 11
260.9
 21
483.0
 31
0.0
  0
TEXT
  5
3A1
100
AcDbEntity
  8
LAY-6
  6
CONTINUOUS
 62
     2
100
AcDbText
 10
259.4
 20
485.5
 30
0.0
 40
5.0
  1
９
 50
90.0
 41
0.672
  7
EXCADSTD
 72
     5
 11
259.4
 21
488.7
 31
0.0
100
AcDbText
  0
LINE
  5
3A2
100
AcDbEntity
  8
LAY-6
  6
CONTINUOUS
 62
     1
100
AcDbLine
 10
259.9
 20
483.0
 30
0.0
 11
259.9
 21
492.0
 31
0.0
  0
LINE
  5
3A3
100
AcDbEntity
  8
LAY-6
  6
CONTINUOUS
 62
     1
100
AcDbLine
 10
259.566667
 20
485.0
 30
0.0
 11
259.9
 21
483.0
 31
0.0
  0
LINE
  5
3A4
100
AcDbEntity
  8
LAY-6
  6
CONTINUOUS
 62
     1
100
AcDbLine
 10
259.9
 20
483.0
 30
0.0
 11
260.233333
 21
485.0
 31
0.0
  0
LINE
  5
3A5
100
AcDbEntity
  8
LAY-6
  6
CONTINUOUS
 62
     1
100
AcDbLine
 10
260.233333
 20
490.0
 30
0.0
 11
259.9
 21
492.0
 31
0.0
  0
LINE
  5
3A6
100
AcDbEntity
  8
LAY-6
  6
CONTINUOUS
 62
     1
100
AcDbLine
 10
259.9
 20
492.0
 30
0.0
 11
259.566667
 21
490.0
 31
0.0
  0
LINE
  5
3A7
100
AcDbEntity
  8
LAY-6
  6
CONTINUOUS
 62
     1
100
AcDbLine
 10
717.2
 20
483.999961
 30
0.0
 11
735.7
 21
483.999961
 31
0.0
  0
LINE
  5
3A8
100
AcDbEntity
  8
LAY-6
  6
CONTINUOUS
 62
     1
100
AcDbLine
 10
717.6
 20
502.0
 30
0.0
 11
735.7
 21
502.0
 31
0.0
  0
TEXT
  5
3A9
100
AcDbEntity
  8
LAY-6
  6
CONTINUOUS
 62
     2
100
AcDbText
 10
734.2
 20
488.99998
 30
0.0
 40
5.0
  1
１８
 50
90.0
 41
0.672
  7
EXCADSTD
 72
     5
 11
734.2
 21
496.332781
 31
0.0
100
AcDbText
  0
LINE
  5
3AA
100
AcDbEntity
  8
LAY-6
  6
CONTINUOUS
 62
     1
100
AcDbLine
 10
734.7
 20
483.999961
 30
0.0
 11
734.7
 21
502.0
 31
0.0
  0
LINE
  5
3AB
100
AcDbEntity
  8
LAY-6
  6
CONTINUOUS
 62
     1
100
AcDbLine
 10
734.366667
 20
485.999961
 30
0.0
 11
734.7
 21
483.999961
 31
0.0
  0
LINE
  5
3AC
100
AcDbEntity
  8
LAY-6
  6
CONTINUOUS
 62
     1
100
AcDbLine
 10
734.7
 20
483.999961
 30
0.0
 11
735.033333
 21
485.999961
 31
0.0
  0
LINE
  5
3AD
100
AcDbEntity
  8
LAY-6
  6
CONTINUOUS
 62
     1
100
AcDbLine
 10
735.033333
 20
500.0
 30
0.0
 11
734.7
 21
502.0
 31
0.0
  0
LINE
  5
3AE
100
AcDbEntity
  8
LAY-6
  6
CONTINUOUS
 62
     1
100
AcDbLine
 10
734.7
 20
502.0
 30
0.0
 11
734.366667
 21
500.0
 31
0.0
  0
LINE
  5
3AF
100
AcDbEntity
  8
LAY-6
  6
CONTINUOUS
 62
     1
100
AcDbLine
 10
720.5
 20
509.0
 30
0.0
 11
745.0
 21
509.0
 31
0.0
  0
LINE
  5
3B0
100
AcDbEntity
  8
LAY-6
  6
CONTINUOUS
 62
     1
100
AcDbLine
 10
720.5
 20
476.999961
 30
0.0
 11
745.0
 21
476.999961
 31
0.0
  0
TEXT
  5
3B1
100
AcDbEntity
  8
LAY-6
  6
CONTINUOUS
 62
     2
100
AcDbText
 10
743.5
 20
488.99998
 30
0.0
 40
5.0
  1
３２
 50
90.0
 41
0.672
  7
EXCADSTD
 72
     5
 11
743.5
 21
496.332781
 31
0.0
100
AcDbText
  0
LINE
  5
3B2
100
AcDbEntity
  8
LAY-6
  6
CONTINUOUS
 62
     1
100
AcDbLine
 10
744.0
 20
509.0
 30
0.0
 11
744.0
 21
476.999961
 31
0.0
  0
LINE
  5
3B3
100
AcDbEntity
  8
LAY-6
  6
CONTINUOUS
 62
     1
100
AcDbLine
 10
744.333333
 20
507.0
 30
0.0
 11
744.0
 21
509.0
 31
0.0
  0
LINE
  5
3B4
100
AcDbEntity
  8
LAY-6
  6
CONTINUOUS
 62
     1
100
AcDbLine
 10
744.0
 20
509.0
 30
0.0
 11
743.666667
 21
507.0
 31
0.0
  0
LINE
  5
3B5
100
AcDbEntity
  8
LAY-6
  6
CONTINUOUS
 62
     1
100
AcDbLine
 10
743.666667
 20
478.999961
 30
0.0
 11
744.0
 21
476.999961
 31
0.0
  0
LINE
  5
3B6
100
AcDbEntity
  8
LAY-6
  6
CONTINUOUS
 62
     1
100
AcDbLine
 10
744.0
 20
476.999961
 30
0.0
 11
744.333333
 21
478.999961
 31
0.0
  0
LINE
  5
3B7
100
AcDbEntity
  8
LAY-6
  6
CONTINUOUS
 62
     1
100
AcDbLine
 10
563.5
 20
511.5
 30
0.0
 11
557.3
 21
511.5
 31
0.0
  0
LINE
  5
3B8
100
AcDbEntity
  8
LAY-6
  6
CONTINUOUS
 62
     1
100
AcDbLine
 10
563.5
 20
474.499961
 30
0.0
 11
557.3
 21
474.499961
 31
0.0
  0
TEXT
  5
3B9
100
AcDbEntity
  8
LAY-6
  6
CONTINUOUS
 62
     2
100
AcDbText
 10
557.8
 20
488.99998
 30
0.0
 40
5.0
  1
３７
 50
90.0
 41
0.672
  7
EXCADSTD
 72
     5
 11
557.8
 21
496.332781
 31
0.0
100
AcDbText
  0
LINE
  5
3BA
100
AcDbEntity
  8
LAY-6
  6
CONTINUOUS
 62
     1
100
AcDbLine
 10
558.3
 20
511.5
 30
0.0
 11
558.3
 21
474.499961
 31
0.0
  0
LINE
  5
3BB
100
AcDbEntity
  8
LAY-6
  6
CONTINUOUS
 62
     1
100
AcDbLine
 10
558.633333
 20
509.5
 30
0.0
 11
558.3
 21
511.5
 31
0.0
  0
LINE
  5
3BC
100
AcDbEntity
  8
LAY-6
  6
CONTINUOUS
 62
     1
100
AcDbLine
 10
558.3
 20
511.5
 30
0.0
 11
557.966667
 21
509.5
 31
0.0
  0
LINE
  5
3BD
100
AcDbEntity
  8
LAY-6
  6
CONTINUOUS
 62
     1
100
AcDbLine
 10
557.966667
 20
476.499961
 30
0.0
 11
558.3
 21
474.499961
 31
0.0
  0
LINE
  5
3BE
100
AcDbEntity
  8
LAY-6
  6
CONTINUOUS
 62
     1
100
AcDbLine
 10
558.3
 20
474.499961
 30
0.0
 11
558.633333
 21
476.499961
 31
0.0
  0
LINE
  5
3BF
100
AcDbEntity
  8
LAY-6
  6
CONTINUOUS
 62
     1
100
AcDbLine
 10
564.0
 20
512.0
 30
0.0
 11
564.0
 21
520.3
 31
0.0
  0
LINE
  5
3C0
100
AcDbEntity
  8
LAY-6
  6
CONTINUOUS
 62
     1
100
AcDbLine
 10
585.0
 20
509.5
 30
0.0
 11
585.0
 21
520.3
 31
0.0
  0
TEXT
  5
3C1
100
AcDbEntity
  8
LAY-6
  6
CONTINUOUS
 62
     2
100
AcDbText
 10
572.61
 20
519.8
 30
0.0
 40
5.0
  1
２１
 41
0.672
  7
EXCADSTD
 72
     5
 11
579.9428
 21
519.8
 31
0.0
100
AcDbText
  0
LINE
  5
3C2
100
AcDbEntity
  8
LAY-6
  6
CONTINUOUS
 62
     1
100
AcDbLine
 10
564.0
 20
519.3
 30
0.0
 11
585.0
 21
519.3
 31
0.0
  0
LINE
  5
3C3
100
AcDbEntity
  8
LAY-6
  6
CONTINUOUS
 62
     1
100
AcDbLine
 10
566.0
 20
519.633333
 30
0.0
 11
564.0
 21
519.3
 31
0.0
  0
LINE
  5
3C4
100
AcDbEntity
  8
LAY-6
  6
CONTINUOUS
 62
     1
100
AcDbLine
 10
564.0
 20
519.3
 30
0.0
 11
566.0
 21
518.966667
 31
0.0
  0
LINE
  5
3C5
100
AcDbEntity
  8
LAY-6
  6
CONTINUOUS
 62
     1
100
AcDbLine
 10
583.0
 20
518.966667
 30
0.0
 11
585.0
 21
519.3
 31
0.0
  0
LINE
  5
3C6
100
AcDbEntity
  8
LAY-6
  6
CONTINUOUS
 62
     1
100
AcDbLine
 10
585.0
 20
519.3
 30
0.0
 11
583.0
 21
519.633333
 31
0.0
  0
LINE
  5
3C7
100
AcDbEntity
  8
LAY-6
  6
CONTINUOUS
 62
     1
100
AcDbLine
 10
726.0
 20
512.0
 30
0.0
 11
726.0
 21
520.3
 31
0.0
  0
TEXT
  5
3C8
100
AcDbEntity
  8
LAY-6
  6
CONTINUOUS
 62
     2
100
AcDbText
 10
649.5
 20
519.8
 30
0.0
 40
5.0
  1
１４１
 41
0.672
  7
EXCADSTD
 72
     5
 11
661.5
 21
519.8
 31
0.0
100
AcDbText
  0
LINE
  5
3C9
100
AcDbEntity
  8
LAY-6
  6
CONTINUOUS
 62
     1
100
AcDbLine
 10
585.0
 20
519.3
 30
0.0
 11
726.0
 21
519.3
 31
0.0
  0
LINE
  5
3CA
100
AcDbEntity
  8
LAY-6
  6
CONTINUOUS
 62
     1
100
AcDbLine
 10
587.0
 20
519.633333
 30
0.0
 11
585.0
 21
519.3
 31
0.0
  0
LINE
  5
3CB
100
AcDbEntity
  8
LAY-6
  6
CONTINUOUS
 62
     1
100
AcDbLine
 10
585.0
 20
519.3
 30
0.0
 11
587.0
 21
518.966667
 31
0.0
  0
LINE
  5
3CC
100
AcDbEntity
  8
LAY-6
  6
CONTINUOUS
 62
     1
100
AcDbLine
 10
724.0
 20
518.966667
 30
0.0
 11
726.0
 21
519.3
 31
0.0
  0
LINE
  5
3CD
100
AcDbEntity
  8
LAY-6
  6
CONTINUOUS
 62
     1
100
AcDbLine
 10
726.0
 20
519.3
 30
0.0
 11
724.0
 21
519.633333
 31
0.0
  0
TEXT
  5
3CE
100
AcDbEntity
  8
LAY-6
  6
CONTINUOUS
 62
     2
100
AcDbText
 10
593.5
 20
456.6
 30
0.0
 40
5.0
  1
２５
 41
0.672
  7
EXCADSTD
 72
     5
 11
600.8328
 21
456.6
 31
0.0
100
AcDbText
  0
LINE
  5
3CF
100
AcDbEntity
  8
LAY-6
  6
CONTINUOUS
 62
     1
100
AcDbLine
 10
585.0
 20
456.1
 30
0.0
 11
610.0
 21
456.1
 31
0.0
  0
LINE
  5
3D0
100
AcDbEntity
  8
LAY-6
  6
CONTINUOUS
 62
     1
100
AcDbLine
 10
587.0
 20
456.433333
 30
0.0
 11
585.0
 21
456.1
 31
0.0
  0
LINE
  5
3D1
100
AcDbEntity
  8
LAY-6
  6
CONTINUOUS
 62
     1
100
AcDbLine
 10
585.0
 20
456.1
 30
0.0
 11
587.0
 21
455.766667
 31
0.0
  0
LINE
  5
3D2
100
AcDbEntity
  8
LAY-6
  6
CONTINUOUS
 62
     1
100
AcDbLine
 10
608.0
 20
455.766667
 30
0.0
 11
610.0
 21
456.1
 31
0.0
  0
LINE
  5
3D3
100
AcDbEntity
  8
LAY-6
  6
CONTINUOUS
 62
     1
100
AcDbLine
 10
610.0
 20
456.1
 30
0.0
 11
608.0
 21
456.433333
 31
0.0
  0
LINE
  5
3D4
100
AcDbEntity
  8
LAY-6
  6
CONTINUOUS
 62
     1
100
AcDbLine
 10
610.0
 20
494.75
 30
0.0
 11
610.0
 21
455.1
 31
0.0
  0
TEXT
  5
3D5
100
AcDbEntity
  8
LAY-6
  6
CONTINUOUS
 62
     2
100
AcDbText
 10
616.0
 20
456.6
 30
0.0
 40
5.0
  1
２０
 41
0.672
  7
EXCADSTD
 72
     5
 11
623.3328
 21
456.6
 31
0.0
100
AcDbText
  0
LINE
  5
3D6
100
AcDbEntity
  8
LAY-6
  6
CONTINUOUS
 62
     1
100
AcDbLine
 10
610.0
 20
456.1
 30
0.0
 11
630.0
 21
456.1
 31
0.0
  0
LINE
  5
3D7
100
AcDbEntity
  8
LAY-6
  6
CONTINUOUS
 62
     1
100
AcDbLine
 10
612.0
 20
456.433333
 30
0.0
 11
610.0
 21
456.1
 31
0.0
  0
LINE
  5
3D8
100
AcDbEntity
  8
LAY-6
  6
CONTINUOUS
 62
     1
100
AcDbLine
 10
610.0
 20
456.1
 30
0.0
 11
612.0
 21
455.766667
 31
0.0
  0
LINE
  5
3D9
100
AcDbEntity
  8
LAY-6
  6
CONTINUOUS
 62
     1
100
AcDbLine
 10
628.0
 20
455.766667
 30
0.0
 11
630.0
 21
456.1
 31
0.0
  0
LINE
  5
3DA
100
AcDbEntity
  8
LAY-6
  6
CONTINUOUS
 62
     1
100
AcDbLine
 10
630.0
 20
456.1
 30
0.0
 11
628.0
 21
456.433333
 31
0.0
  0
TEXT
  5
3DB
100
AcDbEntity
  8
LAY-6
  6
CONTINUOUS
 62
     2
100
AcDbText
 10
664.5
 20
456.6
 30
0.0
 40
5.0
  1
７７
 41
0.672
  7
EXCADSTD
 72
     5
 11
671.8328
 21
456.6
 31
0.0
100
AcDbText
  0
LINE
  5
3DC
100
AcDbEntity
  8
LAY-6
  6
CONTINUOUS
 62
     1
100
AcDbLine
 10
630.0
 20
476.499961
 30
0.0
 11
630.0
 21
455.1
 31
0.0
  0
LINE
  5
3DD
100
AcDbEntity
  8
LAY-6
  6
CONTINUOUS
 62
     1
100
AcDbLine
 10
707.0
 20
477.499961
 30
0.0
 11
707.0
 21
455.1
 31
0.0
  0
LINE
  5
3DE
100
AcDbEntity
  8
LAY-6
  6
CONTINUOUS
 62
     1
100
AcDbLine
 10
630.0
 20
456.1
 30
0.0
 11
707.0
 21
456.1
 31
0.0
  0
LINE
  5
3DF
100
AcDbEntity
  8
LAY-6
  6
CONTINUOUS
 62
     1
100
AcDbLine
 10
632.0
 20
456.433333
 30
0.0
 11
630.0
 21
456.1
 31
0.0
  0
LINE
  5
3E0
100
AcDbEntity
  8
LAY-6
  6
CONTINUOUS
 62
     1
100
AcDbLine
 10
630.0
 20
456.1
 30
0.0
 11
632.0
 21
455.766667
 31
0.0
  0
LINE
  5
3E1
100
AcDbEntity
  8
LAY-6
  6
CONTINUOUS
 62
     1
100
AcDbLine
 10
705.0
 20
455.766667
 30
0.0
 11
707.0
 21
456.1
 31
0.0
  0
LINE
  5
3E2
100
AcDbEntity
  8
LAY-6
  6
CONTINUOUS
 62
     1
100
AcDbLine
 10
707.0
 20
456.1
 30
0.0
 11
705.0
 21
456.433333
 31
0.0
  0
LINE
  5
3E3
100
AcDbEntity
  8
LAY-6
  6
CONTINUOUS
 62
     1
100
AcDbLine
 10
569.0
 20
476.499961
 30
0.0
 11
569.0
 21
445.6
 31
0.0
  0
TEXT
  5
3E4
100
AcDbEntity
  8
LAY-6
  6
CONTINUOUS
 62
     2
100
AcDbText
 10
573.0
 20
447.1
 30
0.0
 40
5.0
  1
１６
 41
0.672
  7
EXCADSTD
 72
     5
 11
580.3328
 21
447.1
 31
0.0
100
AcDbText
  0
LINE
  5
3E5
100
AcDbEntity
  8
LAY-6
  6
CONTINUOUS
 62
     1
100
AcDbLine
 10
569.0
 20
446.6
 30
0.0
 11
585.0
 21
446.6
 31
0.0
  0
LINE
  5
3E6
100
AcDbEntity
  8
LAY-6
  6
CONTINUOUS
 62
     1
100
AcDbLine
 10
571.0
 20
446.933333
 30
0.0
 11
569.0
 21
446.6
 31
0.0
  0
LINE
  5
3E7
100
AcDbEntity
  8
LAY-6
  6
CONTINUOUS
 62
     1
100
AcDbLine
 10
569.0
 20
446.6
 30
0.0
 11
571.0
 21
446.266667
 31
0.0
  0
LINE
  5
3E8
100
AcDbEntity
  8
LAY-6
  6
CONTINUOUS
 62
     1
100
AcDbLine
 10
583.0
 20
446.266667
 30
0.0
 11
585.0
 21
446.6
 31
0.0
  0
LINE
  5
3E9
100
AcDbEntity
  8
LAY-6
  6
CONTINUOUS
 62
     1
100
AcDbLine
 10
585.0
 20
446.6
 30
0.0
 11
583.0
 21
446.933333
 31
0.0
  0
LINE
  5
3EA
100
AcDbEntity
  8
LAY-6
  6
CONTINUOUS
 62
     1
100
AcDbLine
 10
618.9
 20
382.999939
 30
0.0
 11
629.7
 21
382.999939
 31
0.0
  0
TEXT
  5
3EB
100
AcDbEntity
  8
LAY-6
  6
CONTINUOUS
 62
     2
100
AcDbText
 10
628.2
 20
378.499939
 30
0.0
 40
5.0
  1
５
 50
90.0
 41
0.672
  7
EXCADSTD
 72
     5
 11
628.2
 21
381.699939
 31
0.0
100
AcDbText
  0
LINE
  5
3EC
100
AcDbEntity
  8
LAY-6
  6
CONTINUOUS
 62
     1
100
AcDbLine
 10
628.7
 20
382.999939
 30
0.0
 11
628.7
 21
377.999939
 31
0.0
  0
LINE
  5
3ED
100
AcDbEntity
  8
LAY-6
  6
CONTINUOUS
 62
     1
100
AcDbLine
 10
629.033333
 20
380.999939
 30
0.0
 11
628.7
 21
382.999939
 31
0.0
  0
LINE
  5
3EE
100
AcDbEntity
  8
LAY-6
  6
CONTINUOUS
 62
     1
100
AcDbLine
 10
628.7
 20
382.999939
 30
0.0
 11
628.366667
 21
380.999939
 31
0.0
  0
LINE
  5
3EF
100
AcDbEntity
  8
LAY-6
  6
CONTINUOUS
 62
     1
100
AcDbLine
 10
628.366667
 20
379.999939
 30
0.0
 11
628.7
 21
377.999939
 31
0.0
  0
LINE
  5
3F0
100
AcDbEntity
  8
LAY-6
  6
CONTINUOUS
 62
     1
100
AcDbLine
 10
628.7
 20
377.999939
 30
0.0
 11
629.033333
 21
379.999939
 31
0.0
  0
LINE
  5
3F1
100
AcDbEntity
  8
LAY-6
  6
CONTINUOUS
 62
     1
100
AcDbLine
 10
635.1
 20
372.999939
 30
0.0
 11
627.7
 21
372.999939
 31
0.0
  0
TEXT
  5
3F2
100
AcDbEntity
  8
LAY-6
  6
CONTINUOUS
 62
     2
100
AcDbText
 10
628.2
 20
373.499939
 30
0.0
 40
5.0
  1
５
 50
90.0
 41
0.672
  7
EXCADSTD
 72
     5
 11
628.2
 21
376.699939
 31
0.0
100
AcDbText
  0
LINE
  5
3F3
100
AcDbEntity
  8
LAY-6
  6
CONTINUOUS
 62
     1
100
AcDbLine
 10
628.7
 20
372.999939
 30
0.0
 11
628.7
 21
377.999939
 31
0.0
  0
LINE
  5
3F4
100
AcDbEntity
  8
LAY-6
  6
CONTINUOUS
 62
     1
100
AcDbLine
 10
628.366667
 20
374.999939
 30
0.0
 11
628.7
 21
372.999939
 31
0.0
  0
LINE
  5
3F5
100
AcDbEntity
  8
LAY-6
  6
CONTINUOUS
 62
     1
100
AcDbLine
 10
628.7
 20
372.999939
 30
0.0
 11
629.033333
 21
374.999939
 31
0.0
  0
LINE
  5
3F6
100
AcDbEntity
  8
LAY-6
  6
CONTINUOUS
 62
     1
100
AcDbLine
 10
629.033333
 20
375.999939
 30
0.0
 11
628.7
 21
377.999939
 31
0.0
  0
LINE
  5
3F7
100
AcDbEntity
  8
LAY-6
  6
CONTINUOUS
 62
     1
100
AcDbLine
 10
628.7
 20
377.999939
 30
0.0
 11
628.366667
 21
375.999939
 31
0.0
  0
LINE
  5
3F8
100
AcDbEntity
  8
LAY-6
  6
CONTINUOUS
 62
     1
100
AcDbLine
 10
725.5
 20
390.5
 30
0.0
 11
736.2
 21
390.5
 31
0.0
  0
LINE
  5
3F9
100
AcDbEntity
  8
LAY-6
  6
CONTINUOUS
 62
     1
100
AcDbLine
 10
725.5
 20
365.5
 30
0.0
 11
736.2
 21
365.5
 31
0.0
  0
TEXT
  5
3FA
100
AcDbEntity
  8
LAY-6
  6
CONTINUOUS
 62
     2
100
AcDbText
 10
734.7
 20
374.0
 30
0.0
 40
5.0
  1
２５
 50
90.0
 41
0.672
  7
EXCADSTD
 72
     5
 11
734.7
 21
381.3328
 31
0.0
100
AcDbText
  0
LINE
  5
3FB
100
AcDbEntity
  8
LAY-6
  6
CONTINUOUS
 62
     1
100
AcDbLine
 10
735.2
 20
390.5
 30
0.0
 11
735.2
 21
365.5
 31
0.0
  0
LINE
  5
3FC
100
AcDbEntity
  8
LAY-6
  6
CONTINUOUS
 62
     1
100
AcDbLine
 10
735.533333
 20
388.5
 30
0.0
 11
735.2
 21
390.5
 31
0.0
  0
LINE
  5
3FD
100
AcDbEntity
  8
LAY-6
  6
CONTINUOUS
 62
     1
100
AcDbLine
 10
735.2
 20
390.5
 30
0.0
 11
734.866667
 21
388.5
 31
0.0
  0
LINE
  5
3FE
100
AcDbEntity
  8
LAY-6
  6
CONTINUOUS
 62
     1
100
AcDbLine
 10
734.866667
 20
367.5
 30
0.0
 11
735.2
 21
365.5
 31
0.0
  0
LINE
  5
3FF
100
AcDbEntity
  8
LAY-6
  6
CONTINUOUS
 62
     1
100
AcDbLine
 10
735.2
 20
365.5
 30
0.0
 11
735.533333
 21
367.5
 31
0.0
  0
TEXT
  5
400
100
AcDbEntity
  8
LAY-6
  6
CONTINUOUS
 62
     2
100
AcDbText
 10
593.5
 20
351.8
 30
0.0
 40
5.0
  1
２５
 41
0.672
  7
EXCADSTD
 72
     5
 11
600.8328
 21
351.8
 31
0.0
100
AcDbText
  0
LINE
  5
401
100
AcDbEntity
  8
LAY-6
  6
CONTINUOUS
 62
     1
100
AcDbLine
 10
585.0
 20
351.3
 30
0.0
 11
610.0
 21
351.3
 31
0.0
  0
LINE
  5
402
100
AcDbEntity
  8
LAY-6
  6
CONTINUOUS
 62
     1
100
AcDbLine
 10
587.0
 20
351.633333
 30
0.0
 11
585.0
 21
351.3
 31
0.0
  0
LINE
  5
403
100
AcDbEntity
  8
LAY-6
  6
CONTINUOUS
 62
     1
100
AcDbLine
 10
585.0
 20
351.3
 30
0.0
 11
587.0
 21
350.966667
 31
0.0
  0
LINE
  5
404
100
AcDbEntity
  8
LAY-6
  6
CONTINUOUS
 62
     1
100
AcDbLine
 10
608.0
 20
350.966667
 30
0.0
 11
610.0
 21
351.3
 31
0.0
  0
LINE
  5
405
100
AcDbEntity
  8
LAY-6
  6
CONTINUOUS
 62
     1
100
AcDbLine
 10
610.0
 20
351.3
 30
0.0
 11
608.0
 21
351.633333
 31
0.0
  0
LINE
  5
406
100
AcDbEntity
  8
LAY-6
  6
CONTINUOUS
 62
     1
100
AcDbLine
 10
610.0
 20
377.499939
 30
0.0
 11
610.0
 21
350.3
 31
0.0
  0
TEXT
  5
407
100
AcDbEntity
  8
LAY-6
  6
CONTINUOUS
 62
     2
100
AcDbText
 10
623.49998
 20
351.8
 30
0.0
 40
5.0
  1
３５
 41
0.672
  7
EXCADSTD
 72
     5
 11
630.832781
 21
351.8
 31
0.0
100
AcDbText
  0
LINE
  5
408
100
AcDbEntity
  8
LAY-6
  6
CONTINUOUS
 62
     1
100
AcDbLine
 10
610.0
 20
351.3
 30
0.0
 11
644.999961
 21
351.3
 31
0.0
  0
LINE
  5
409
100
AcDbEntity
  8
LAY-6
  6
CONTINUOUS
 62
     1
100
AcDbLine
 10
612.0
 20
351.633333
 30
0.0
 11
610.0
 21
351.3
 31
0.0
  0
LINE
  5
40A
100
AcDbEntity
  8
LAY-6
  6
CONTINUOUS
 62
     1
100
AcDbLine
 10
610.0
 20
351.3
 30
0.0
 11
612.0
 21
350.966667
 31
0.0
  0
LINE
  5
40B
100
AcDbEntity
  8
LAY-6
  6
CONTINUOUS
 62
     1
100
AcDbLine
 10
642.999961
 20
350.966667
 30
0.0
 11
644.999961
 21
351.3
 31
0.0
  0
LINE
  5
40C
100
AcDbEntity
  8
LAY-6
  6
CONTINUOUS
 62
     1
100
AcDbLine
 10
644.999961
 20
351.3
 30
0.0
 11
642.999961
 21
351.633333
 31
0.0
  0
LINE
  5
40D
100
AcDbEntity
  8
LAY-6
  6
CONTINUOUS
 62
     1
100
AcDbLine
 10
644.999961
 20
365.0
 30
0.0
 11
644.999961
 21
350.3
 31
0.0
  0
TEXT
  5
40E
100
AcDbEntity
  8
LAY-6
  6
CONTINUOUS
 62
     2
100
AcDbText
 10
658.49998
 20
351.8
 30
0.0
 40
5.0
  1
３５
 41
0.672
  7
EXCADSTD
 72
     5
 11
665.832781
 21
351.8
 31
0.0
100
AcDbText
  0
LINE
  5
40F
100
AcDbEntity
  8
LAY-6
  6
CONTINUOUS
 62
     1
100
AcDbLine
 10
644.999961
 20
351.3
 30
0.0
 11
680.0
 21
351.3
 31
0.0
  0
LINE
  5
410
100
AcDbEntity
  8
LAY-6
  6
CONTINUOUS
 62
     1
100
AcDbLine
 10
646.999961
 20
351.633333
 30
0.0
 11
644.999961
 21
351.3
 31
0.0
  0
LINE
  5
411
100
AcDbEntity
  8
LAY-6
  6
CONTINUOUS
 62
     1
100
AcDbLine
 10
644.999961
 20
351.3
 30
0.0
 11
646.999961
 21
350.966667
 31
0.0
  0
LINE
  5
412
100
AcDbEntity
  8
LAY-6
  6
CONTINUOUS
 62
     1
100
AcDbLine
 10
678.0
 20
350.966667
 30
0.0
 11
680.0
 21
351.3
 31
0.0
  0
LINE
  5
413
100
AcDbEntity
  8
LAY-6
  6
CONTINUOUS
 62
     1
100
AcDbLine
 10
680.0
 20
351.3
 30
0.0
 11
678.0
 21
351.633333
 31
0.0
  0
LINE
  5
414
100
AcDbEntity
  8
LAY-6
  6
CONTINUOUS
 62
     1
100
AcDbLine
 10
680.0
 20
375.0001
 30
0.0
 11
680.0
 21
350.3
 31
0.0
  0
LINE
  5
415
100
AcDbEntity
  8
LAY-6
  6
CONTINUOUS
 62
     1
100
AcDbLine
 10
714.999961
 20
365.0
 30
0.0
 11
714.999961
 21
350.3
 31
0.0
  0
TEXT
  5
416
100
AcDbEntity
  8
LAY-6
  6
CONTINUOUS
 62
     2
100
AcDbText
 10
693.49998
 20
351.8
 30
0.0
 40
5.0
  1
３５
 41
0.672
  7
EXCADSTD
 72
     5
 11
700.832781
 21
351.8
 31
0.0
100
AcDbText
  0
LINE
  5
417
100
AcDbEntity
  8
LAY-6
  6
CONTINUOUS
 62
     1
100
AcDbLine
 10
680.0
 20
351.3
 30
0.0
 11
714.999961
 21
351.3
 31
0.0
  0
LINE
  5
418
100
AcDbEntity
  8
LAY-6
  6
CONTINUOUS
 62
     1
100
AcDbLine
 10
682.0
 20
351.633333
 30
0.0
 11
680.0
 21
351.3
 31
0.0
  0
LINE
  5
419
100
AcDbEntity
  8
LAY-6
  6
CONTINUOUS
 62
     1
100
AcDbLine
 10
680.0
 20
351.3
 30
0.0
 11
682.0
 21
350.966667
 31
0.0
  0
LINE
  5
41A
100
AcDbEntity
  8
LAY-6
  6
CONTINUOUS
 62
     1
100
AcDbLine
 10
712.999961
 20
350.966667
 30
0.0
 11
714.999961
 21
351.3
 31
0.0
  0
LINE
  5
41B
100
AcDbEntity
  8
LAY-6
  6
CONTINUOUS
 62
     1
100
AcDbLine
 10
714.999961
 20
351.3
 30
0.0
 11
712.999961
 21
351.633333
 31
0.0
  0
LINE
  5
41C
100
AcDbEntity
  8
LAY-6
  6
CONTINUOUS
 62
     1
100
AcDbLine
 10
585.0
 20
365.0
 30
0.0
 11
585.0
 21
338.7
 31
0.0
  0
LINE
  5
41D
100
AcDbEntity
  8
LAY-6
  6
CONTINUOUS
 62
     1
100
AcDbLine
 10
725.0
 20
365.0
 30
0.0
 11
725.0
 21
338.7
 31
0.0
  0
TEXT
  5
41E
100
AcDbEntity
  8
LAY-6
  6
CONTINUOUS
 62
     2
100
AcDbText
 10
649.0
 20
340.2
 30
0.0
 40
5.0
  1
１４０
 41
0.672
  7
EXCADSTD
 72
     5
 11
661.0
 21
340.2
 31
0.0
100
AcDbText
  0
LINE
  5
41F
100
AcDbEntity
  8
LAY-6
  6
CONTINUOUS
 62
     1
100
AcDbLine
 10
585.0
 20
339.7
 30
0.0
 11
725.0
 21
339.7
 31
0.0
  0
LINE
  5
420
100
AcDbEntity
  8
LAY-6
  6
CONTINUOUS
 62
     1
100
AcDbLine
 10
587.0
 20
340.033333
 30
0.0
 11
585.0
 21
339.7
 31
0.0
  0
LINE
  5
421
100
AcDbEntity
  8
LAY-6
  6
CONTINUOUS
 62
     1
100
AcDbLine
 10
585.0
 20
339.7
 30
0.0
 11
587.0
 21
339.366667
 31
0.0
  0
LINE
  5
422
100
AcDbEntity
  8
LAY-6
  6
CONTINUOUS
 62
     1
100
AcDbLine
 10
723.0
 20
339.366667
 30
0.0
 11
725.0
 21
339.7
 31
0.0
  0
LINE
  5
423
100
AcDbEntity
  8
LAY-6
  6
CONTINUOUS
 62
     1
100
AcDbLine
 10
725.0
 20
339.7
 30
0.0
 11
723.0
 21
340.033333
 31
0.0
  0
LINE
  5
424
100
AcDbEntity
  8
LAY-6
  6
CONTINUOUS
 62
     1
100
AcDbLine
 10
571.0
 20
377.499939
 30
0.0
 11
571.0
 21
338.7
 31
0.0
  0
TEXT
  5
425
100
AcDbEntity
  8
LAY-6
  6
CONTINUOUS
 62
     2
100
AcDbText
 10
574.0
 20
340.2
 30
0.0
 40
5.0
  1
１４
 41
0.672
  7
EXCADSTD
 72
     5
 11
581.3328
 21
340.2
 31
0.0
100
AcDbText
  0
LINE
  5
426
100
AcDbEntity
  8
LAY-6
  6
CONTINUOUS
 62
     1
100
AcDbLine
 10
571.0
 20
339.7
 30
0.0
 11
585.0
 21
339.7
 31
0.0
  0
LINE
  5
427
100
AcDbEntity
  8
LAY-6
  6
CONTINUOUS
 62
     1
100
AcDbLine
 10
573.0
 20
340.033333
 30
0.0
 11
571.0
 21
339.7
 31
0.0
  0
LINE
  5
428
100
AcDbEntity
  8
LAY-6
  6
CONTINUOUS
 62
     1
100
AcDbLine
 10
571.0
 20
339.7
 30
0.0
 11
573.0
 21
339.366667
 31
0.0
  0
LINE
  5
429
100
AcDbEntity
  8
LAY-6
  6
CONTINUOUS
 62
     1
100
AcDbLine
 10
583.0
 20
339.366667
 30
0.0
 11
585.0
 21
339.7
 31
0.0
  0
LINE
  5
42A
100
AcDbEntity
  8
LAY-6
  6
CONTINUOUS
 62
     1
100
AcDbLine
 10
585.0
 20
339.7
 30
0.0
 11
583.0
 21
340.033333
 31
0.0
  0
LINE
  5
42B
100
AcDbEntity
  8
LAY-6
  6
CONTINUOUS
 62
     1
100
AcDbLine
 10
614.9
 20
234.5
 30
0.0
 11
614.9
 21
194.8
 31
0.0
  0
LINE
  5
42C
100
AcDbEntity
  8
LAY-6
  6
CONTINUOUS
 62
     1
100
AcDbLine
 10
539.9
 20
228.5
 30
0.0
 11
539.9
 21
194.8
 31
0.0
  0
TEXT
  5
42D
100
AcDbEntity
  8
LAY-6
  6
CONTINUOUS
 62
     2
100
AcDbText
 10
573.4
 20
196.3
 30
0.0
 40
5.0
  1
７５
 41
0.672
  7
EXCADSTD
 72
     5
 11
580.7328
 21
196.3
 31
0.0
100
AcDbText
  0
LINE
  5
42E
100
AcDbEntity
  8
LAY-6
  6
CONTINUOUS
 62
     1
100
AcDbLine
 10
614.9
 20
195.8
 30
0.0
 11
539.9
 21
195.8
 31
0.0
  0
LINE
  5
42F
100
AcDbEntity
  8
LAY-6
  6
CONTINUOUS
 62
     1
100
AcDbLine
 10
612.9
 20
195.466667
 30
0.0
 11
614.9
 21
195.8
 31
0.0
  0
LINE
  5
430
100
AcDbEntity
  8
LAY-6
  6
CONTINUOUS
 62
     1
100
AcDbLine
 10
614.9
 20
195.8
 30
0.0
 11
612.9
 21
196.133333
 31
0.0
  0
LINE
  5
431
100
AcDbEntity
  8
LAY-6
  6
CONTINUOUS
 62
     1
100
AcDbLine
 10
541.9
 20
196.133333
 30
0.0
 11
539.9
 21
195.8
 31
0.0
  0
LINE
  5
432
100
AcDbEntity
  8
LAY-6
  6
CONTINUOUS
 62
     1
100
AcDbLine
 10
539.9
 20
195.8
 30
0.0
 11
541.9
 21
195.466667
 31
0.0
  0
LINE
  5
433
100
AcDbEntity
  8
LAY-6
  6
CONTINUOUS
 62
     1
100
AcDbLine
 10
604.4
 20
235.0
 30
0.0
 11
623.0
 21
235.0
 31
0.0
  0
LINE
  5
434
100
AcDbEntity
  8
LAY-6
  6
CONTINUOUS
 62
     1
100
AcDbLine
 10
604.4
 20
267.0
 30
0.0
 11
623.0
 21
267.0
 31
0.0
  0
TEXT
  5
435
100
AcDbEntity
  8
LAY-6
  6
CONTINUOUS
 62
     2
100
AcDbText
 10
621.5
 20
247.0
 30
0.0
 40
5.0
  1
３２
 50
90.0
 41
0.672
  7
EXCADSTD
 72
     5
 11
621.5
 21
254.3328
 31
0.0
100
AcDbText
  0
LINE
  5
436
100
AcDbEntity
  8
LAY-6
  6
CONTINUOUS
 62
     1
100
AcDbLine
 10
622.0
 20
235.0
 30
0.0
 11
622.0
 21
267.0
 31
0.0
  0
LINE
  5
437
100
AcDbEntity
  8
LAY-6
  6
CONTINUOUS
 62
     1
100
AcDbLine
 10
621.666667
 20
237.0
 30
0.0
 11
622.0
 21
235.0
 31
0.0
  0
LINE
  5
438
100
AcDbEntity
  8
LAY-6
  6
CONTINUOUS
 62
     1
100
AcDbLine
 10
622.0
 20
235.0
 30
0.0
 11
622.333333
 21
237.0
 31
0.0
  0
LINE
  5
439
100
AcDbEntity
  8
LAY-6
  6
CONTINUOUS
 62
     1
100
AcDbLine
 10
622.333333
 20
265.0
 30
0.0
 11
622.0
 21
267.0
 31
0.0
  0
LINE
  5
43A
100
AcDbEntity
  8
LAY-6
  6
CONTINUOUS
 62
     1
100
AcDbLine
 10
622.0
 20
267.0
 30
0.0
 11
621.666667
 21
265.0
 31
0.0
  0
LINE
  5
43B
100
AcDbEntity
  8
LAY-6
  6
CONTINUOUS
 62
     1
100
AcDbLine
 10
605.4
 20
233.0
 30
0.0
 11
631.7
 21
233.0
 31
0.0
  0
LINE
  5
43C
100
AcDbEntity
  8
LAY-6
  6
CONTINUOUS
 62
     1
100
AcDbLine
 10
605.4
 20
269.0
 30
0.0
 11
631.7
 21
269.0
 31
0.0
  0
TEXT
  5
43D
100
AcDbEntity
  8
LAY-6
  6
CONTINUOUS
 62
     2
100
AcDbText
 10
630.2
 20
247.0
 30
0.0
 40
5.0
  1
３６
 50
90.0
 41
0.672
  7
EXCADSTD
 72
     5
 11
630.2
 21
254.3328
 31
0.0
100
AcDbText
  0
LINE
  5
43E
100
AcDbEntity
  8
LAY-6
  6
CONTINUOUS
 62
     1
100
AcDbLine
 10
630.7
 20
233.0
 30
0.0
 11
630.7
 21
269.0
 31
0.0
  0
LINE
  5
43F
100
AcDbEntity
  8
LAY-6
  6
CONTINUOUS
 62
     1
100
AcDbLine
 10
630.366667
 20
235.0
 30
0.0
 11
630.7
 21
233.0
 31
0.0
  0
LINE
  5
440
100
AcDbEntity
  8
LAY-6
  6
CONTINUOUS
 62
     1
100
AcDbLine
 10
630.7
 20
233.0
 30
0.0
 11
631.033333
 21
235.0
 31
0.0
  0
LINE
  5
441
100
AcDbEntity
  8
LAY-6
  6
CONTINUOUS
 62
     1
100
AcDbLine
 10
631.033333
 20
267.0
 30
0.0
 11
630.7
 21
269.0
 31
0.0
  0
LINE
  5
442
100
AcDbEntity
  8
LAY-6
  6
CONTINUOUS
 62
     1
100
AcDbLine
 10
630.7
 20
269.0
 30
0.0
 11
630.366667
 21
267.0
 31
0.0
  0
LINE
  5
443
100
AcDbEntity
  8
LAY-6
  6
CONTINUOUS
 62
     1
100
AcDbLine
 10
604.9
 20
269.5
 30
0.0
 11
604.9
 21
280.268629
 31
0.0
  0
LINE
  5
444
100
AcDbEntity
  8
LAY-6
  6
CONTINUOUS
 62
     1
100
AcDbLine
 10
564.9
 20
269.5
 30
0.0
 11
564.9
 21
280.268629
 31
0.0
  0
TEXT
  5
445
100
AcDbEntity
  8
LAY-6
  6
CONTINUOUS
 62
     2
100
AcDbText
 10
580.9
 20
281.768629
 30
0.0
 40
5.0
  1
４０
 41
0.672
  7
EXCADSTD
 72
     5
 11
588.2328
 21
281.768629
 31
0.0
100
AcDbText
  0
LINE
  5
446
100
AcDbEntity
  8
LAY-6
  6
CONTINUOUS
 62
     1
100
AcDbLine
 10
604.9
 20
279.268629
 30
0.0
 11
564.9
 21
279.268629
 31
0.0
  0
LINE
  5
447
100
AcDbEntity
  8
LAY-6
  6
CONTINUOUS
 62
     1
100
AcDbLine
 10
602.9
 20
278.935296
 30
0.0
 11
604.9
 21
279.268629
 31
0.0
  0
LINE
  5
448
100
AcDbEntity
  8
LAY-6
  6
CONTINUOUS
 62
     1
100
AcDbLine
 10
604.9
 20
279.268629
 30
0.0
 11
602.9
 21
279.601962
 31
0.0
  0
LINE
  5
449
100
AcDbEntity
  8
LAY-6
  6
CONTINUOUS
 62
     1
100
AcDbLine
 10
566.9
 20
279.601962
 30
0.0
 11
564.9
 21
279.268629
 31
0.0
  0
LINE
  5
44A
100
AcDbEntity
  8
LAY-6
  6
CONTINUOUS
 62
     1
100
AcDbLine
 10
564.9
 20
279.268629
 30
0.0
 11
566.9
 21
278.935296
 31
0.0
  0
LINE
  5
44B
100
AcDbEntity
  8
LAY-6
  6
CONTINUOUS
 62
     1
100
AcDbLine
 10
603.9
 20
234.5
 30
0.0
 11
603.9
 21
212.9
 31
0.0
  0
LINE
  5
44C
100
AcDbEntity
  8
LAY-6
  6
CONTINUOUS
 62
     1
100
AcDbLine
 10
565.9
 20
234.5
 30
0.0
 11
565.9
 21
212.9
 31
0.0
  0
TEXT
  5
44D
100
AcDbEntity
  8
LAY-6
  6
CONTINUOUS
 62
     2
100
AcDbText
 10
580.9
 20
214.4
 30
0.0
 40
5.0
  1
３８
 41
0.672
  7
EXCADSTD
 72
     5
 11
588.2328
 21
214.4
 31
0.0
100
AcDbText
  0
LINE
  5
44E
100
AcDbEntity
  8
LAY-6
  6
CONTINUOUS
 62
     1
100
AcDbLine
 10
603.9
 20
213.9
 30
0.0
 11
565.9
 21
213.9
 31
0.0
  0
LINE
  5
44F
100
AcDbEntity
  8
LAY-6
  6
CONTINUOUS
 62
     1
100
AcDbLine
 10
601.9
 20
213.566667
 30
0.0
 11
603.9
 21
213.9
 31
0.0
  0
LINE
  5
450
100
AcDbEntity
  8
LAY-6
  6
CONTINUOUS
 62
     1
100
AcDbLine
 10
603.9
 20
213.9
 30
0.0
 11
601.9
 21
214.233333
 31
0.0
  0
LINE
  5
451
100
AcDbEntity
  8
LAY-6
  6
CONTINUOUS
 62
     1
100
AcDbLine
 10
567.9
 20
214.233333
 30
0.0
 11
565.9
 21
213.9
 31
0.0
  0
LINE
  5
452
100
AcDbEntity
  8
LAY-6
  6
CONTINUOUS
 62
     1
100
AcDbLine
 10
565.9
 20
213.9
 30
0.0
 11
567.9
 21
213.566667
 31
0.0
  0
LINE
  5
453
100
AcDbEntity
  8
LAY-6
  6
CONTINUOUS
 62
     1
100
AcDbLine
 10
545.9
 20
228.5
 30
0.0
 11
545.9
 21
212.9
 31
0.0
  0
TEXT
  5
454
100
AcDbEntity
  8
LAY-6
  6
CONTINUOUS
 62
     2
100
AcDbText
 10
540.9
 20
214.4
 30
0.0
 40
5.0
  1
６
 41
0.672
  7
EXCADSTD
 72
     5
 11
544.1
 21
214.4
 31
0.0
100
AcDbText
  0
LINE
  5
455
100
AcDbEntity
  8
LAY-6
  6
CONTINUOUS
 62
     1
100
AcDbLine
 10
539.9
 20
213.9
 30
0.0
 11
545.9
 21
213.9
 31
0.0
  0
LINE
  5
456
100
AcDbEntity
  8
LAY-6
  6
CONTINUOUS
 62
     1
100
AcDbLine
 10
541.9
 20
214.233333
 30
0.0
 11
539.9
 21
213.9
 31
0.0
  0
LINE
  5
457
100
AcDbEntity
  8
LAY-6
  6
CONTINUOUS
 62
     1
100
AcDbLine
 10
539.9
 20
213.9
 30
0.0
 11
541.9
 21
213.566667
 31
0.0
  0
LINE
  5
458
100
AcDbEntity
  8
LAY-6
  6
CONTINUOUS
 62
     1
100
AcDbLine
 10
543.9
 20
213.566667
 30
0.0
 11
545.9
 21
213.9
 31
0.0
  0
LINE
  5
459
100
AcDbEntity
  8
LAY-6
  6
CONTINUOUS
 62
     1
100
AcDbLine
 10
545.9
 20
213.9
 30
0.0
 11
543.9
 21
214.233333
 31
0.0
  0
LINE
  5
45A
100
AcDbEntity
  8
LAY-6
  6
CONTINUOUS
 62
     1
100
AcDbLine
 10
539.4
 20
229.0
 30
0.0
 11
529.4
 21
229.0
 31
0.0
  0
LINE
  5
45B
100
AcDbEntity
  8
LAY-6
  6
CONTINUOUS
 62
     1
100
AcDbLine
 10
539.4
 20
273.0
 30
0.0
 11
529.4
 21
273.0
 31
0.0
  0
TEXT
  5
45C
100
AcDbEntity
  8
LAY-6
  6
CONTINUOUS
 62
     2
100
AcDbText
 10
529.9
 20
247.0
 30
0.0
 40
5.0
  1
４４
 50
90.0
 41
0.672
  7
EXCADSTD
 72
     5
 11
529.9
 21
254.3328
 31
0.0
100
AcDbText
  0
LINE
  5
45D
100
AcDbEntity
  8
LAY-6
  6
CONTINUOUS
 62
     1
100
AcDbLine
 10
530.4
 20
229.0
 30
0.0
 11
530.4
 21
273.0
 31
0.0
  0
LINE
  5
45E
100
AcDbEntity
  8
LAY-6
  6
CONTINUOUS
 62
     1
100
AcDbLine
 10
530.066667
 20
231.0
 30
0.0
 11
530.4
 21
229.0
 31
0.0
  0
LINE
  5
45F
100
AcDbEntity
  8
LAY-6
  6
CONTINUOUS
 62
     1
100
AcDbLine
 10
530.4
 20
229.0
 30
0.0
 11
530.733333
 21
231.0
 31
0.0
  0
LINE
  5
460
100
AcDbEntity
  8
LAY-6
  6
CONTINUOUS
 62
     1
100
AcDbLine
 10
530.733333
 20
271.0
 30
0.0
 11
530.4
 21
273.0
 31
0.0
  0
LINE
  5
461
100
AcDbEntity
  8
LAY-6
  6
CONTINUOUS
 62
     1
100
AcDbLine
 10
530.4
 20
273.0
 30
0.0
 11
530.066667
 21
271.0
 31
0.0
  0
LINE
  5
462
100
AcDbEntity
  8
LAY-6
  6
CONTINUOUS
 62
     1
100
AcDbLine
 10
641.2
 20
251.0
 30
0.0
 11
647.7
 21
251.0
 31
0.0
  0
TEXT
  5
463
100
AcDbEntity
  8
LAY-6
  6
CONTINUOUS
 62
     2
100
AcDbText
 10
649.0
 20
262.0
 30
0.0
 40
5.0
  1
７
 50
90.0
 41
0.672
  7
EXCADSTD
 72
     5
 11
649.0
 21
265.2
 31
0.0
100
AcDbText
  0
LINE
  5
464
100
AcDbEntity
  8
LAY-6
  6
CONTINUOUS
 62
     1
100
AcDbLine
 10
646.2
 20
251.0
 30
0.0
 11
646.2
 21
261.0
 31
0.0
  0
CIRCLE
  5
465
100
AcDbEntity
  8
LAY-6
  6
CONTINUOUS
 62
     1
100
AcDbCircle
 10
646.2
 20
251.0
 30
0.0
 40
1.0
  0
CIRCLE
  5
466
100
AcDbEntity
  8
LAY-6
  6
CONTINUOUS
 62
     1
100
AcDbCircle
 10
646.2
 20
251.0
 30
0.0
 40
0.5
  0
LINE
  5
467
100
AcDbEntity
  8
LAY-6
  6
CONTINUOUS
 62
     1
100
AcDbLine
 10
646.533333
 20
259.0
 30
0.0
 11
646.2
 21
261.0
 31
0.0
  0
LINE
  5
468
100
AcDbEntity
  8
LAY-6
  6
CONTINUOUS
 62
     1
100
AcDbLine
 10
646.2
 20
261.0
 30
0.0
 11
645.866667
 21
259.0
 31
0.0
  0
LINE
  5
469
100
AcDbEntity
  8
LAY-6
  6
CONTINUOUS
 62
     1
100
AcDbLine
 10
646.2
 20
251.0
 30
0.0
 11
646.2
 21
241.0
 31
0.0
  0
CIRCLE
  5
46A
100
AcDbEntity
  8
LAY-6
  6
CONTINUOUS
 62
     1
100
AcDbCircle
 10
646.2
 20
251.0
 30
0.0
 40
1.0
  0
CIRCLE
  5
46B
100
AcDbEntity
  8
LAY-6
  6
CONTINUOUS
 62
     1
100
AcDbCircle
 10
646.2
 20
251.0
 30
0.0
 40
0.5
  0
LINE
  5
46C
100
AcDbEntity
  8
LAY-6
  6
CONTINUOUS
 62
     1
100
AcDbLine
 10
645.866667
 20
243.0
 30
0.0
 11
646.2
 21
241.0
 31
0.0
  0
LINE
  5
46D
100
AcDbEntity
  8
LAY-6
  6
CONTINUOUS
 62
     1
100
AcDbLine
 10
646.2
 20
241.0
 30
0.0
 11
646.533333
 21
243.0
 31
0.0
  0
TEXT
  5
46E
100
AcDbEntity
  8
LAY-6
  6
CONTINUOUS
 62
     2
100
AcDbText
 10
649.0
 20
237.0
 30
0.0
 40
5.0
  1
７
 50
90.0
 41
0.672
  7
EXCADSTD
 72
     5
 11
649.0
 21
240.2
 31
0.0
100
AcDbText
  0
LINE
  5
46F
100
AcDbEntity
  8
LAY-6
  6
CONTINUOUS
 62
     1
100
AcDbLine
 10
571.0
 20
115.5
 30
0.0
 11
571.0
 21
99.9
 31
0.0
  0
TEXT
  5
470
100
AcDbEntity
  8
LAY-6
  6
CONTINUOUS
 62
     2
100
AcDbText
 10
574.0
 20
101.4
 30
0.0
 40
5.0
  1
１４
 41
0.672
  7
EXCADSTD
 72
     5
 11
581.3328
 21
101.4
 31
0.0
100
AcDbText
  0
LINE
  5
471
100
AcDbEntity
  8
LAY-6
  6
CONTINUOUS
 62
     1
100
AcDbLine
 10
571.0
 20
100.9
 30
0.0
 11
585.0
 21
100.9
 31
0.0
  0
LINE
  5
472
100
AcDbEntity
  8
LAY-6
  6
CONTINUOUS
 62
     1
100
AcDbLine
 10
573.0
 20
101.233333
 30
0.0
 11
571.0
 21
100.9
 31
0.0
  0
LINE
  5
473
100
AcDbEntity
  8
LAY-6
  6
CONTINUOUS
 62
     1
100
AcDbLine
 10
571.0
 20
100.9
 30
0.0
 11
573.0
 21
100.566667
 31
0.0
  0
LINE
  5
474
100
AcDbEntity
  8
LAY-6
  6
CONTINUOUS
 62
     1
100
AcDbLine
 10
583.0
 20
100.566667
 30
0.0
 11
585.0
 21
100.9
 31
0.0
  0
LINE
  5
475
100
AcDbEntity
  8
LAY-6
  6
CONTINUOUS
 62
     1
100
AcDbLine
 10
585.0
 20
100.9
 30
0.0
 11
583.0
 21
101.233333
 31
0.0
  0
LINE
  5
476
100
AcDbEntity
  8
LAY-6
  6
CONTINUOUS
 62
     1
100
AcDbLine
 10
602.0
 20
115.5
 30
0.0
 11
602.0
 21
99.9
 31
0.0
  0
TEXT
  5
477
100
AcDbEntity
  8
LAY-6
  6
CONTINUOUS
 62
     2
100
AcDbText
 10
589.5
 20
101.4
 30
0.0
 40
5.0
  1
１７
 41
0.672
  7
EXCADSTD
 72
     5
 11
596.8328
 21
101.4
 31
0.0
100
AcDbText
  0
LINE
  5
478
100
AcDbEntity
  8
LAY-6
  6
CONTINUOUS
 62
     1
100
AcDbLine
 10
602.0
 20
100.9
 30
0.0
 11
585.0
 21
100.9
 31
0.0
  0
LINE
  5
479
100
AcDbEntity
  8
LAY-6
  6
CONTINUOUS
 62
     1
100
AcDbLine
 10
600.0
 20
100.566667
 30
0.0
 11
602.0
 21
100.9
 31
0.0
  0
LINE
  5
47A
100
AcDbEntity
  8
LAY-6
  6
CONTINUOUS
 62
     1
100
AcDbLine
 10
602.0
 20
100.9
 30
0.0
 11
600.0
 21
101.233333
 31
0.0
  0
LINE
  5
47B
100
AcDbEntity
  8
LAY-6
  6
CONTINUOUS
 62
     1
100
AcDbLine
 10
587.0
 20
101.233333
 30
0.0
 11
585.0
 21
100.9
 31
0.0
  0
LINE
  5
47C
100
AcDbEntity
  8
LAY-6
  6
CONTINUOUS
 62
     1
100
AcDbLine
 10
585.0
 20
100.9
 30
0.0
 11
587.0
 21
100.566667
 31
0.0
  0
LINE
  5
47D
100
AcDbEntity
  8
LAY-6
  6
CONTINUOUS
 62
     1
100
AcDbLine
 10
405.1
 20
211.3
 30
0.0
 11
379.4
 21
211.3
 31
0.0
  0
TEXT
  5
47E
100
AcDbEntity
  8
LAY-6
  6
CONTINUOUS
 62
     2
100
AcDbText
 10
379.9
 20
204.3
 30
0.0
 40
5.0
  1
１
 50
90.0
 41
0.672
  7
EXCADSTD
 72
     5
 11
379.9
 21
207.5
 31
0.0
100
AcDbText
  0
LINE
  5
47F
100
AcDbEntity
  8
LAY-6
  6
CONTINUOUS
 62
     1
100
AcDbLine
 10
380.4
 20
203.8
 30
0.0
 11
380.4
 21
214.3
 31
0.0
  0
LINE
  5
480
100
AcDbEntity
  8
LAY-6
  6
CONTINUOUS
 62
     1
100
AcDbLine
 10
380.733333
 20
208.3
 30
0.0
 11
380.4
 21
210.3
 31
0.0
  0
LINE
  5
481
100
AcDbEntity
  8
LAY-6
  6
CONTINUOUS
 62
     1
100
AcDbLine
 10
380.4
 20
210.3
 30
0.0
 11
380.066667
 21
208.3
 31
0.0
  0
LINE
  5
482
100
AcDbEntity
  8
LAY-6
  6
CONTINUOUS
 62
     1
100
AcDbLine
 10
380.066667
 20
213.3
 30
0.0
 11
380.4
 21
211.3
 31
0.0
  0
LINE
  5
483
100
AcDbEntity
  8
LAY-6
  6
CONTINUOUS
 62
     1
100
AcDbLine
 10
380.4
 20
211.3
 30
0.0
 11
380.733333
 21
213.3
 31
0.0
  0
INSERT
  5
484
100
AcDbEntity
  8
LAY-6
  6
CONTINUOUS
 62
     0
100
AcDbBlockReference
  2
SYM-3
 10
378.965
 20
203.625
 30
0.0
 50
90.0
  0
LINE
  5
485
100
AcDbEntity
  8
LAY-6
  6
CONTINUOUS
 62
     1
100
AcDbLine
 10
442.6
 20
494.2
 30
0.0
 11
456.9
 21
494.2
 31
0.0
  0
LINE
  5
486
100
AcDbEntity
  8
LAY-6
  6
CONTINUOUS
 62
     1
100
AcDbLine
 10
442.6
 20
495.0
 30
0.0
 11
456.9
 21
495.0
 31
0.0
  0
TEXT
  5
487
100
AcDbEntity
  8
LAY-6
  6
CONTINUOUS
 62
     2
100
AcDbText
 10
455.4
 20
500.52
 30
0.0
 40
5.0
  1
０.８
 50
90.0
 41
0.595556
  7
EXCADSTD
 72
     5
 11
455.4
 21
510.52
 31
0.0
100
AcDbText
  0
LINE
  5
488
100
AcDbEntity
  8
LAY-6
  6
CONTINUOUS
 62
     1
100
AcDbLine
 10
455.9
 20
491.2
 30
0.0
 11
455.9
 21
510.2
 31
0.0
  0
LINE
  5
489
100
AcDbEntity
  8
LAY-6
  6
CONTINUOUS
 62
     1
100
AcDbLine
 10
456.233333
 20
492.2
 30
0.0
 11
455.9
 21
494.2
 31
0.0
  0
LINE
  5
48A
100
AcDbEntity
  8
LAY-6
  6
CONTINUOUS
 62
     1
100
AcDbLine
 10
455.9
 20
494.2
 30
0.0
 11
455.566667
 21
492.2
 31
0.0
  0
LINE
  5
48B
100
AcDbEntity
  8
LAY-6
  6
CONTINUOUS
 62
     1
100
AcDbLine
 10
455.566667
 20
497.0
 30
0.0
 11
455.9
 21
495.0
 31
0.0
  0
LINE
  5
48C
100
AcDbEntity
  8
LAY-6
  6
CONTINUOUS
 62
     1
100
AcDbLine
 10
455.9
 20
495.0
 30
0.0
 11
456.233333
 21
497.0
 31
0.0
  0
INSERT
  5
48D
100
AcDbEntity
  8
LAY-6
  6
CONTINUOUS
 62
     0
100
AcDbBlockReference
  2
SYM-3
 10
454.5
 20
499.74
 30
0.0
 50
90.0
  0
LINE
  5
48E
100
AcDbEntity
  8
LAY-6
  6
CONTINUOUS
 62
     1
100
AcDbLine
 10
380.4
 20
495.0
 30
0.0
 11
380.4
 21
492.0
 31
0.0
  0
LINE
  5
48F
100
AcDbEntity
  8
LAY-6
  6
CONTINUOUS
 62
     1
100
AcDbLine
 10
380.4
 20
493.5
 30
0.0
 11
372.6
 21
495.4
 31
0.0
  0
TEXT
  5
490
100
AcDbEntity
  8
LAY-6
  6
CONTINUOUS
 62
     2
100
AcDbText
 10
123.474782
 20
430.250437
 30
0.0
 40
5.0
  1
閉扉速度調整穴　φ１５
 41
0.672
  7
EXCADSTD
 72
     5
 11
167.474782
 21
430.250437
 31
0.0
100
AcDbText
  0
POLYLINE
  5
491
100
AcDbEntity
  8
LAY-6
  6
CONTINUOUS
 62
     1
100
AcDb2dPolyline
 66
     1
 10
0.0
 20
0.0
 30
0.0
 70
   128
  0
VERTEX
  5
492
100
AcDbEntity
  8
LAY-6
  6
CONTINUOUS
 62
     1
100
AcDbVertex
100
AcDb2dVertex
 10
116.207814
 20
422.008687
 30
0.0
  0
VERTEX
  5
493
100
AcDbEntity
  8
LAY-6
  6
CONTINUOUS
 62
     1
100
AcDbVertex
100
AcDb2dVertex
 10
123.949563
 20
429.750437
 30
0.0
  0
VERTEX
  5
494
100
AcDbEntity
  8
LAY-6
  6
CONTINUOUS
 62
     1
100
AcDbVertex
100
AcDb2dVertex
 10
167.0
 20
429.750437
 30
0.0
  0
SEQEND
  5
495
100
AcDbEntity
  8
LAY-6
  6
CONTINUOUS
 62
     1
  0
LINE
  5
496
100
AcDbEntity
  8
LAY-6
  6
CONTINUOUS
 62
     1
100
AcDbLine
 10
117.386325
 20
423.658603
 30
0.0
 11
116.207814
 21
422.008687
 31
0.0
  0
LINE
  5
497
100
AcDbEntity
  8
LAY-6
  6
CONTINUOUS
 62
     1
100
AcDbLine
 10
116.207814
 20
422.008687
 30
0.0
 11
117.85773
 21
423.187199
 31
0.0
  0
TEXT
  5
498
100
AcDbEntity
  8
LAY-6
  6
CONTINUOUS
 62
     2
100
AcDbText
 10
161.7
 20
323.0
 30
0.0
 40
5.0
  1
スプリング調整窓
 41
0.672
  7
EXCADSTD
 72
     5
 11
193.7
 21
323.0
 31
0.0
100
AcDbText
  0
POLYLINE
  5
499
100
AcDbEntity
  8
LAY-6
  6
CONTINUOUS
 62
     1
100
AcDb2dPolyline
 66
     1
 10
0.0
 20
0.0
 30
0.0
 70
   128
  0
VERTEX
  5
49A
100
AcDbEntity
  8
LAY-6
  6
CONTINUOUS
 62
     1
100
AcDbVertex
100
AcDb2dVertex
 10
148.0
 20
308.8
 30
0.0
  0
VERTEX
  5
49B
100
AcDbEntity
  8
LAY-6
  6
CONTINUOUS
 62
     1
100
AcDbVertex
100
AcDb2dVertex
 10
161.6
 20
323.0
 30
0.0
  0
VERTEX
  5
49C
100
AcDbEntity
  8
LAY-6
  6
CONTINUOUS
 62
     1
100
AcDbVertex
100
AcDb2dVertex
 10
193.7
 20
323.0
 30
0.0
  0
SEQEND
  5
49D
100
AcDbEntity
  8
LAY-6
  6
CONTINUOUS
 62
     1
  0
LINE
  5
49E
100
AcDbEntity
  8
LAY-6
  6
CONTINUOUS
 62
     1
100
AcDbLine
 10
149.713953
 20
311.312442
 30
0.0
 11
148.0
 21
308.8
 31
0.0
  0
LINE
  5
49F
100
AcDbEntity
  8
LAY-6
  6
CONTINUOUS
 62
     1
100
AcDbLine
 10
148.0
 20
308.8
 30
0.0
 11
150.436153
 21
310.620757
 31
0.0
  0
TEXT
  5
4A0
100
AcDbEntity
  8
LAY-6
  6
CONTINUOUS
 62
     2
100
AcDbText
 10
232.325
 20
254.95
 30
0.0
 40
5.0
  1
裏板４.５ｔ以上(別途)
 41
0.616
  7
EXCADSTD
 72
     5
 11
274.325
 21
254.95
 31
0.0
100
AcDbText
  0
POLYLINE
  5
4A1
100
AcDbEntity
  8
LAY-6
  6
CONTINUOUS
 62
     1
100
AcDb2dPolyline
 66
     1
 10
0.0
 20
0.0
 30
0.0
 70
   128
  0
VERTEX
  5
4A2
100
AcDbEntity
  8
LAY-6
  6
CONTINUOUS
 62
     1
100
AcDbVertex
100
AcDb2dVertex
 10
220.0
 20
241.3
 30
0.0
  0
VERTEX
  5
4A3
100
AcDbEntity
  8
LAY-6
  6
CONTINUOUS
 62
     1
100
AcDbVertex
100
AcDb2dVertex
 10
233.15
 20
254.45
 30
0.0
  0
VERTEX
  5
4A4
100
AcDbEntity
  8
LAY-6
  6
CONTINUOUS
 62
     1
100
AcDbVertex
100
AcDb2dVertex
 10
273.5
 20
254.45
 30
0.0
  0
SEQEND
  5
4A5
100
AcDbEntity
  8
LAY-6
  6
CONTINUOUS
 62
     1
  0
LINE
  5
4A6
100
AcDbEntity
  8
LAY-6
  6
CONTINUOUS
 62
     1
100
AcDbLine
 10
221.178511
 20
242.949916
 30
0.0
 11
220.0
 21
241.3
 31
0.0
  0
LINE
  5
4A7
100
AcDbEntity
  8
LAY-6
  6
CONTINUOUS
 62
     1
100
AcDbLine
 10
220.0
 20
241.3
 30
0.0
 11
221.649916
 21
242.478511
 31
0.0
  0
POLYLINE
  5
4A8
100
AcDbEntity
  8
LAY-6
  6
CONTINUOUS
 62
     1
100
AcDb2dPolyline
 66
     1
 10
0.0
 20
0.0
 30
0.0
 70
   128
  0
VERTEX
  5
4A9
100
AcDbEntity
  8
LAY-6
  6
CONTINUOUS
 62
     1
100
AcDbVertex
100
AcDb2dVertex
 10
210.0
 20
242.300037
 30
0.0
  0
VERTEX
  5
4AA
100
AcDbEntity
  8
LAY-6
  6
CONTINUOUS
 62
     1
100
AcDbVertex
100
AcDb2dVertex
 10
231.749982
 20
264.050019
 30
0.0
  0
VERTEX
  5
4AB
100
AcDbEntity
  8
LAY-6
  6
CONTINUOUS
 62
     1
100
AcDbVertex
100
AcDb2dVertex
 10
280.8
 20
264.050019
 30
0.0
  0
SEQEND
  5
4AC
100
AcDbEntity
  8
LAY-6
  6
CONTINUOUS
 62
     1
  0
LINE
  5
4AD
100
AcDbEntity
  8
LAY-6
  6
CONTINUOUS
 62
     1
100
AcDbLine
 10
211.178511
 20
243.949953
 30
0.0
 11
210.0
 21
242.300037
 31
0.0
  0
LINE
  5
4AE
100
AcDbEntity
  8
LAY-6
  6
CONTINUOUS
 62
     1
100
AcDbLine
 10
210.0
 20
242.300037
 30
0.0
 11
211.649916
 21
243.478548
 31
0.0
  0
TEXT
  5
4AF
100
AcDbEntity
  8
LAY-6
  6
CONTINUOUS
 62
     2
100
AcDbText
 10
232.274991
 20
264.550019
 30
0.0
 40
5.0
  1
４－Ｍ６×１６サラ小ネジ
 41
0.672
  7
EXCADSTD
 72
     5
 11
280.274991
 21
264.550019
 31
0.0
100
AcDbText
  0
LINE
  5
4B0
100
AcDbEntity
  8
LAY-6
  6
CONTINUOUS
 62
     1
100
AcDbLine
 10
127.0
 20
241.8
 30
0.0
 11
127.0
 21
249.9
 31
0.0
  0
TEXT
  5
4B1
100
AcDbEntity
  8
LAY-6
  6
CONTINUOUS
 62
     2
100
AcDbText
 10
114.5
 20
249.4
 30
0.0
 40
5.0
  1
１７
 41
0.672
  7
EXCADSTD
 72
     5
 11
121.8328
 21
249.4
 31
0.0
100
AcDbText
  0
LINE
  5
4B2
100
AcDbEntity
  8
LAY-6
  6
CONTINUOUS
 62
     1
100
AcDbLine
 10
127.0
 20
248.9
 30
0.0
 11
110.0
 21
248.9
 31
0.0
  0
LINE
  5
4B3
100
AcDbEntity
  8
LAY-6
  6
CONTINUOUS
 62
     1
100
AcDbLine
 10
125.0
 20
248.566667
 30
0.0
 11
127.0
 21
248.9
 31
0.0
  0
LINE
  5
4B4
100
AcDbEntity
  8
LAY-6
  6
CONTINUOUS
 62
     1
100
AcDbLine
 10
127.0
 20
248.9
 30
0.0
 11
125.0
 21
249.233333
 31
0.0
  0
LINE
  5
4B5
100
AcDbEntity
  8
LAY-6
  6
CONTINUOUS
 62
     1
100
AcDbLine
 10
112.0
 20
249.233333
 30
0.0
 11
110.0
 21
248.9
 31
0.0
  0
LINE
  5
4B6
100
AcDbEntity
  8
LAY-6
  6
CONTINUOUS
 62
     1
100
AcDbLine
 10
110.0
 20
248.9
 30
0.0
 11
112.0
 21
248.566667
 31
0.0
  0
LINE
  5
4B7
100
AcDbEntity
  8
LAY-6
  6
CONTINUOUS
 62
     1
100
AcDbLine
 10
220.0
 20
241.8
 30
0.0
 11
220.0
 21
249.9
 31
0.0
  0
TEXT
  5
4B8
100
AcDbEntity
  8
LAY-6
  6
CONTINUOUS
 62
     2
100
AcDbText
 10
169.5
 20
249.4
 30
0.0
 40
5.0
  1
９３
 41
0.672
  7
EXCADSTD
 72
     5
 11
176.8328
 21
249.4
 31
0.0
100
AcDbText
  0
LINE
  5
4B9
100
AcDbEntity
  8
LAY-6
  6
CONTINUOUS
 62
     1
100
AcDbLine
 10
220.0
 20
248.9
 30
0.0
 11
127.0
 21
248.9
 31
0.0
  0
LINE
  5
4BA
100
AcDbEntity
  8
LAY-6
  6
CONTINUOUS
 62
     1
100
AcDbLine
 10
218.0
 20
248.566667
 30
0.0
 11
220.0
 21
248.9
 31
0.0
  0
LINE
  5
4BB
100
AcDbEntity
  8
LAY-6
  6
CONTINUOUS
 62
     1
100
AcDbLine
 10
220.0
 20
248.9
 30
0.0
 11
218.0
 21
249.233333
 31
0.0
  0
LINE
  5
4BC
100
AcDbEntity
  8
LAY-6
  6
CONTINUOUS
 62
     1
100
AcDbLine
 10
129.0
 20
249.233333
 30
0.0
 11
127.0
 21
248.9
 31
0.0
  0
LINE
  5
4BD
100
AcDbEntity
  8
LAY-6
  6
CONTINUOUS
 62
     1
100
AcDbLine
 10
127.0
 20
248.9
 30
0.0
 11
129.0
 21
248.566667
 31
0.0
  0
LINE
  5
4BE
100
AcDbEntity
  8
LAY-6
  6
CONTINUOUS
 62
     1
100
AcDbLine
 10
218.5
 20
226.3
 30
0.0
 11
233.6
 21
226.3
 31
0.0
  0
TEXT
  5
4BF
100
AcDbEntity
  8
LAY-6
  6
CONTINUOUS
 62
     2
100
AcDbText
 10
232.1
 20
228.3
 30
0.0
 40
5.0
  1
８
 50
90.0
 41
0.672
  7
EXCADSTD
 72
     5
 11
232.1
 21
231.5
 31
0.0
100
AcDbText
  0
LINE
  5
4C0
100
AcDbEntity
  8
LAY-6
  6
CONTINUOUS
 62
     1
100
AcDbLine
 10
232.6
 20
226.3
 30
0.0
 11
232.6
 21
234.3
 31
0.0
  0
LINE
  5
4C1
100
AcDbEntity
  8
LAY-6
  6
CONTINUOUS
 62
     1
100
AcDbLine
 10
232.266667
 20
228.3
 30
0.0
 11
232.6
 21
226.3
 31
0.0
  0
LINE
  5
4C2
100
AcDbEntity
  8
LAY-6
  6
CONTINUOUS
 62
     1
100
AcDbLine
 10
232.6
 20
226.3
 30
0.0
 11
232.933333
 21
228.3
 31
0.0
  0
LINE
  5
4C3
100
AcDbEntity
  8
LAY-6
  6
CONTINUOUS
 62
     1
100
AcDbLine
 10
232.933333
 20
232.3
 30
0.0
 11
232.6
 21
234.3
 31
0.0
  0
LINE
  5
4C4
100
AcDbEntity
  8
LAY-6
  6
CONTINUOUS
 62
     1
100
AcDbLine
 10
232.6
 20
234.3
 30
0.0
 11
232.266667
 21
232.3
 31
0.0
  0
TEXT
  5
4C5
100
AcDbEntity
  8
LAY-6
  6
CONTINUOUS
 62
     2
100
AcDbText
 10
232.1
 20
221.3
 30
0.0
 40
5.0
  1
６
 50
90.0
 41
0.672
  7
EXCADSTD
 72
     5
 11
232.1
 21
224.5
 31
0.0
100
AcDbText
  0
LINE
  5
4C6
100
AcDbEntity
  8
LAY-6
  6
CONTINUOUS
 62
     1
100
AcDbLine
 10
232.6
 20
226.3
 30
0.0
 11
232.6
 21
220.3
 31
0.0
  0
LINE
  5
4C7
100
AcDbEntity
  8
LAY-6
  6
CONTINUOUS
 62
     1
100
AcDbLine
 10
232.933333
 20
224.3
 30
0.0
 11
232.6
 21
226.3
 31
0.0
  0
LINE
  5
4C8
100
AcDbEntity
  8
LAY-6
  6
CONTINUOUS
 62
     1
100
AcDbLine
 10
232.6
 20
226.3
 30
0.0
 11
232.266667
 21
224.3
 31
0.0
  0
LINE
  5
4C9
100
AcDbEntity
  8
LAY-6
  6
CONTINUOUS
 62
     1
100
AcDbLine
 10
232.266667
 20
222.3
 30
0.0
 11
232.6
 21
220.3
 31
0.0
  0
LINE
  5
4CA
100
AcDbEntity
  8
LAY-6
  6
CONTINUOUS
 62
     1
100
AcDbLine
 10
232.6
 20
220.3
 30
0.0
 11
232.933333
 21
222.3
 31
0.0
  0
TEXT
  5
4CB
100
AcDbEntity
  8
LAY-6
  6
CONTINUOUS
 62
     2
100
AcDbText
 10
241.9
 20
223.3
 30
0.0
 40
5.0
  1
１４
 50
90.0
 41
0.672
  7
EXCADSTD
 72
     5
 11
241.9
 21
230.6328
 31
0.0
100
AcDbText
  0
LINE
  5
4CC
100
AcDbEntity
  8
LAY-6
  6
CONTINUOUS
 62
     1
100
AcDbLine
 10
242.4
 20
234.3
 30
0.0
 11
242.4
 21
220.3
 31
0.0
  0
LINE
  5
4CD
100
AcDbEntity
  8
LAY-6
  6
CONTINUOUS
 62
     1
100
AcDbLine
 10
242.733333
 20
232.3
 30
0.0
 11
242.4
 21
234.3
 31
0.0
  0
LINE
  5
4CE
100
AcDbEntity
  8
LAY-6
  6
CONTINUOUS
 62
     1
100
AcDbLine
 10
242.4
 20
234.3
 30
0.0
 11
242.066667
 21
232.3
 31
0.0
  0
LINE
  5
4CF
100
AcDbEntity
  8
LAY-6
  6
CONTINUOUS
 62
     1
100
AcDbLine
 10
242.066667
 20
222.3
 30
0.0
 11
242.4
 21
220.3
 31
0.0
  0
LINE
  5
4D0
100
AcDbEntity
  8
LAY-6
  6
CONTINUOUS
 62
     1
100
AcDbLine
 10
242.4
 20
220.3
 30
0.0
 11
242.733333
 21
222.3
 31
0.0
  0
TEXT
  5
4D1
100
AcDbEntity
  8
LAY-6
  6
CONTINUOUS
 62
     2
100
AcDbText
 10
232.2
 20
195.8
 30
0.0
 40
5.0
  1
２１
 50
90.0
 41
0.672
  7
EXCADSTD
 72
     5
 11
232.2
 21
203.1328
 31
0.0
100
AcDbText
  0
LINE
  5
4D2
100
AcDbEntity
  8
LAY-6
  6
CONTINUOUS
 62
     1
100
AcDbLine
 10
232.7
 20
189.3
 30
0.0
 11
232.7
 21
210.3
 31
0.0
  0
LINE
  5
4D3
100
AcDbEntity
  8
LAY-6
  6
CONTINUOUS
 62
     1
100
AcDbLine
 10
232.366667
 20
191.3
 30
0.0
 11
232.7
 21
189.3
 31
0.0
  0
LINE
  5
4D4
100
AcDbEntity
  8
LAY-6
  6
CONTINUOUS
 62
     1
100
AcDbLine
 10
232.7
 20
189.3
 30
0.0
 11
233.033333
 21
191.3
 31
0.0
  0
LINE
  5
4D5
100
AcDbEntity
  8
LAY-6
  6
CONTINUOUS
 62
     1
100
AcDbLine
 10
233.033333
 20
208.3
 30
0.0
 11
232.7
 21
210.3
 31
0.0
  0
LINE
  5
4D6
100
AcDbEntity
  8
LAY-6
  6
CONTINUOUS
 62
     1
100
AcDbLine
 10
232.7
 20
210.3
 30
0.0
 11
232.366667
 21
208.3
 31
0.0
  0
TEXT
  5
4D7
100
AcDbEntity
  8
LAY-6
  6
CONTINUOUS
 62
     2
100
AcDbText
 10
242.0
 20
211.3
 30
0.0
 40
5.0
  1
１０
 50
90.0
 41
0.672
  7
EXCADSTD
 72
     5
 11
242.0
 21
218.6328
 31
0.0
100
AcDbText
  0
LINE
  5
4D8
100
AcDbEntity
  8
LAY-6
  6
CONTINUOUS
 62
     1
100
AcDbLine
 10
242.5
 20
220.3
 30
0.0
 11
242.5
 21
210.3
 31
0.0
  0
LINE
  5
4D9
100
AcDbEntity
  8
LAY-6
  6
CONTINUOUS
 62
     1
100
AcDbLine
 10
242.833333
 20
218.3
 30
0.0
 11
242.5
 21
220.3
 31
0.0
  0
LINE
  5
4DA
100
AcDbEntity
  8
LAY-6
  6
CONTINUOUS
 62
     1
100
AcDbLine
 10
242.5
 20
220.3
 30
0.0
 11
242.166667
 21
218.3
 31
0.0
  0
LINE
  5
4DB
100
AcDbEntity
  8
LAY-6
  6
CONTINUOUS
 62
     1
100
AcDbLine
 10
242.166667
 20
212.3
 30
0.0
 11
242.5
 21
210.3
 31
0.0
  0
LINE
  5
4DC
100
AcDbEntity
  8
LAY-6
  6
CONTINUOUS
 62
     1
100
AcDbLine
 10
242.5
 20
210.3
 30
0.0
 11
242.833333
 21
212.3
 31
0.0
  0
TEXT
  5
4DD
100
AcDbEntity
  8
LAY-6
  6
CONTINUOUS
 62
     2
100
AcDbText
 10
242.0
 20
192.8
 30
0.0
 40
5.0
  1
２７
 50
90.0
 41
0.672
  7
EXCADSTD
 72
     5
 11
242.0
 21
200.1328
 31
0.0
100
AcDbText
  0
LINE
  5
4DE
100
AcDbEntity
  8
LAY-6
  6
CONTINUOUS
 62
     1
100
AcDbLine
 10
242.5
 20
183.3
 30
0.0
 11
242.5
 21
210.3
 31
0.0
  0
LINE
  5
4DF
100
AcDbEntity
  8
LAY-6
  6
CONTINUOUS
 62
     1
100
AcDbLine
 10
242.166667
 20
185.3
 30
0.0
 11
242.5
 21
183.3
 31
0.0
  0
LINE
  5
4E0
100
AcDbEntity
  8
LAY-6
  6
CONTINUOUS
 62
     1
100
AcDbLine
 10
242.5
 20
183.3
 30
0.0
 11
242.833333
 21
185.3
 31
0.0
  0
LINE
  5
4E1
100
AcDbEntity
  8
LAY-6
  6
CONTINUOUS
 62
     1
100
AcDbLine
 10
242.833333
 20
208.3
 30
0.0
 11
242.5
 21
210.3
 31
0.0
  0
LINE
  5
4E2
100
AcDbEntity
  8
LAY-6
  6
CONTINUOUS
 62
     1
100
AcDbLine
 10
242.5
 20
210.3
 30
0.0
 11
242.166667
 21
208.3
 31
0.0
  0
LINE
  5
4E3
100
AcDbEntity
  8
LAY-6
  6
CONTINUOUS
 62
     1
100
AcDbLine
 10
113.5
 20
177.15
 30
0.0
 11
243.5
 21
177.15
 31
0.0
  0
TEXT
  5
4E4
100
AcDbEntity
  8
LAY-6
  6
CONTINUOUS
 62
     2
100
AcDbText
 10
242.0
 20
176.725
 30
0.0
 40
5.0
  1
(６)
 50
90.0
 41
0.441778
  7
EXCADSTD
 72
     5
 11
242.0
 21
183.1412
 31
0.0
100
AcDbText
  0
LINE
  5
4E5
100
AcDbEntity
  8
LAY-6
  6
CONTINUOUS
 62
     1
100
AcDbLine
 10
242.5
 20
177.15
 30
0.0
 11
242.5
 21
183.3
 31
0.0
  0
LINE
  5
4E6
100
AcDbEntity
  8
LAY-6
  6
CONTINUOUS
 62
     1
100
AcDbLine
 10
242.166667
 20
179.15
 30
0.0
 11
242.5
 21
177.15
 31
0.0
  0
LINE
  5
4E7
100
AcDbEntity
  8
LAY-6
  6
CONTINUOUS
 62
     1
100
AcDbLine
 10
242.5
 20
177.15
 30
0.0
 11
242.833333
 21
179.15
 31
0.0
  0
LINE
  5
4E8
100
AcDbEntity
  8
LAY-6
  6
CONTINUOUS
 62
     1
100
AcDbLine
 10
242.833333
 20
181.3
 30
0.0
 11
242.5
 21
183.3
 31
0.0
  0
LINE
  5
4E9
100
AcDbEntity
  8
LAY-6
  6
CONTINUOUS
 62
     1
100
AcDbLine
 10
242.5
 20
183.3
 30
0.0
 11
242.166667
 21
181.3
 31
0.0
  0
LINE
  5
4EA
100
AcDbEntity
  8
LAY-6
  6
CONTINUOUS
 62
     1
100
AcDbLine
 10
140.8
 20
183.3
 30
0.0
 11
243.5
 21
183.3
 31
0.0
  0
TEXT
  5
4EB
100
AcDbEntity
  8
LAY-6
  6
CONTINUOUS
 62
     2
100
AcDbText
 10
232.2
 20
184.3
 30
0.0
 40
5.0
  1
６
 50
90.0
 41
0.672
  7
EXCADSTD
 72
     5
 11
232.2
 21
187.5
 31
0.0
100
AcDbText
  0
LINE
  5
4EC
100
AcDbEntity
  8
LAY-6
  6
CONTINUOUS
 62
     1
100
AcDbLine
 10
232.7
 20
189.3
 30
0.0
 11
232.7
 21
183.3
 31
0.0
  0
LINE
  5
4ED
100
AcDbEntity
  8
LAY-6
  6
CONTINUOUS
 62
     1
100
AcDbLine
 10
233.033333
 20
187.3
 30
0.0
 11
232.7
 21
189.3
 31
0.0
  0
LINE
  5
4EE
100
AcDbEntity
  8
LAY-6
  6
CONTINUOUS
 62
     1
100
AcDbLine
 10
232.7
 20
189.3
 30
0.0
 11
232.366667
 21
187.3
 31
0.0
  0
LINE
  5
4EF
100
AcDbEntity
  8
LAY-6
  6
CONTINUOUS
 62
     1
100
AcDbLine
 10
232.366667
 20
185.3
 30
0.0
 11
232.7
 21
183.3
 31
0.0
  0
LINE
  5
4F0
100
AcDbEntity
  8
LAY-6
  6
CONTINUOUS
 62
     1
100
AcDbLine
 10
232.7
 20
183.3
 30
0.0
 11
233.033333
 21
185.3
 31
0.0
  0
LINE
  5
4F1
100
AcDbEntity
  8
LAY-6
  6
CONTINUOUS
 62
     1
100
AcDbLine
 10
140.8
 20
189.3
 30
0.0
 11
233.7
 21
189.3
 31
0.0
  0
LINE
  5
4F2
100
AcDbEntity
  8
LAY-6
  6
CONTINUOUS
 62
     1
100
AcDbLine
 10
91.5
 20
220.3
 30
0.0
 11
86.8
 21
220.3
 31
0.0
  0
LINE
  5
4F3
100
AcDbEntity
  8
LAY-6
  6
CONTINUOUS
 62
     1
100
AcDbLine
 10
99.5
 20
288.8
 30
0.0
 11
86.8
 21
288.8
 31
0.0
  0
LINE
  5
4F4
100
AcDbEntity
  8
LAY-6
  6
CONTINUOUS
 62
     1
100
AcDbLine
 10
87.8
 20
220.3
 30
0.0
 11
87.8
 21
288.8
 31
0.0
  0
LINE
  5
4F5
100
AcDbEntity
  8
LAY-6
  6
CONTINUOUS
 62
     1
100
AcDbLine
 10
87.466667
 20
222.3
 30
0.0
 11
87.8
 21
220.3
 31
0.0
  0
LINE
  5
4F6
100
AcDbEntity
  8
LAY-6
  6
CONTINUOUS
 62
     1
100
AcDbLine
 10
87.8
 20
220.3
 30
0.0
 11
88.133333
 21
222.3
 31
0.0
  0
LINE
  5
4F7
100
AcDbEntity
  8
LAY-6
  6
CONTINUOUS
 62
     1
100
AcDbLine
 10
88.133333
 20
286.8
 30
0.0
 11
87.8
 21
288.8
 31
0.0
  0
LINE
  5
4F8
100
AcDbEntity
  8
LAY-6
  6
CONTINUOUS
 62
     1
100
AcDbLine
 10
87.8
 20
288.8
 30
0.0
 11
87.466667
 21
286.8
 31
0.0
  0
TEXT
  5
4F9
100
AcDbEntity
  8
LAY-6
  6
CONTINUOUS
 62
     2
100
AcDbText
 10
87.3
 20
248.55
 30
0.0
 40
5.0
  1
１７２
 50
90.0
 41
0.672
  7
EXCADSTD
 72
     5
 11
87.3
 21
260.55
 31
0.0
100
AcDbText
  0
LINE
  5
4FA
100
AcDbEntity
  8
LAY-6
  6
CONTINUOUS
 62
     1
100
AcDbLine
 10
99.5
 20
308.8
 30
0.0
 11
86.8
 21
308.8
 31
0.0
  0
TEXT
  5
4FB
100
AcDbEntity
  8
LAY-6
  6
CONTINUOUS
 62
     2
100
AcDbText
 10
87.3
 20
294.8
 30
0.0
 40
5.0
  1
２０
 50
90.0
 41
0.672
  7
EXCADSTD
 72
     5
 11
87.3
 21
302.1328
 31
0.0
100
AcDbText
  0
LINE
  5
4FC
100
AcDbEntity
  8
LAY-6
  6
CONTINUOUS
 62
     1
100
AcDbLine
 10
87.8
 20
288.8
 30
0.0
 11
87.8
 21
308.8
 31
0.0
  0
LINE
  5
4FD
100
AcDbEntity
  8
LAY-6
  6
CONTINUOUS
 62
     1
100
AcDbLine
 10
87.466667
 20
290.8
 30
0.0
 11
87.8
 21
288.8
 31
0.0
  0
LINE
  5
4FE
100
AcDbEntity
  8
LAY-6
  6
CONTINUOUS
 62
     1
100
AcDbLine
 10
87.8
 20
288.8
 30
0.0
 11
88.133333
 21
290.8
 31
0.0
  0
LINE
  5
4FF
100
AcDbEntity
  8
LAY-6
  6
CONTINUOUS
 62
     1
100
AcDbLine
 10
88.133333
 20
306.8
 30
0.0
 11
87.8
 21
308.8
 31
0.0
  0
LINE
  5
500
100
AcDbEntity
  8
LAY-6
  6
CONTINUOUS
 62
     1
100
AcDbLine
 10
87.8
 20
308.8
 30
0.0
 11
87.466667
 21
306.8
 31
0.0
  0
LINE
  5
501
100
AcDbEntity
  8
LAY-6
  6
CONTINUOUS
 62
     1
100
AcDbLine
 10
104.0
 20
417.8
 30
0.0
 11
86.8
 21
417.8
 31
0.0
  0
TEXT
  5
502
100
AcDbEntity
  8
LAY-6
  6
CONTINUOUS
 62
     2
100
AcDbText
 10
87.3
 20
357.3
 30
0.0
 40
5.0
  1
１０９
 50
90.0
 41
0.672
  7
EXCADSTD
 72
     5
 11
87.3
 21
369.3
 31
0.0
100
AcDbText
  0
LINE
  5
503
100
AcDbEntity
  8
LAY-6
  6
CONTINUOUS
 62
     1
100
AcDbLine
 10
87.8
 20
308.8
 30
0.0
 11
87.8
 21
417.8
 31
0.0
  0
LINE
  5
504
100
AcDbEntity
  8
LAY-6
  6
CONTINUOUS
 62
     1
100
AcDbLine
 10
87.466667
 20
310.8
 30
0.0
 11
87.8
 21
308.8
 31
0.0
  0
LINE
  5
505
100
AcDbEntity
  8
LAY-6
  6
CONTINUOUS
 62
     1
100
AcDbLine
 10
87.8
 20
308.8
 30
0.0
 11
88.133333
 21
310.8
 31
0.0
  0
LINE
  5
506
100
AcDbEntity
  8
LAY-6
  6
CONTINUOUS
 62
     1
100
AcDbLine
 10
88.133333
 20
415.8
 30
0.0
 11
87.8
 21
417.8
 31
0.0
  0
LINE
  5
507
100
AcDbEntity
  8
LAY-6
  6
CONTINUOUS
 62
     1
100
AcDbLine
 10
87.8
 20
417.8
 30
0.0
 11
87.466667
 21
415.8
 31
0.0
  0
LINE
  5
508
100
AcDbEntity
  8
LAY-6
  6
CONTINUOUS
 62
     1
100
AcDbLine
 10
70.9
 20
248.8
 30
0.0
 11
70.9
 21
253.4
 31
0.0
  0
LINE
  5
509
100
AcDbEntity
  8
LAY-6
  6
CONTINUOUS
 62
     1
100
AcDbLine
 10
64.9
 20
248.8
 30
0.0
 11
64.9
 21
253.4
 31
0.0
  0
TEXT
  5
50A
100
AcDbEntity
  8
LAY-6
  6
CONTINUOUS
 62
     2
100
AcDbText
 10
65.9
 20
252.9
 30
0.0
 40
5.0
  1
６
 41
0.672
  7
EXCADSTD
 72
     5
 11
69.1
 21
252.9
 31
0.0
100
AcDbText
  0
LINE
  5
50B
100
AcDbEntity
  8
LAY-6
  6
CONTINUOUS
 62
     1
100
AcDbLine
 10
70.9
 20
252.4
 30
0.0
 11
64.9
 21
252.4
 31
0.0
  0
LINE
  5
50C
100
AcDbEntity
  8
LAY-6
  6
CONTINUOUS
 62
     1
100
AcDbLine
 10
68.9
 20
252.066667
 30
0.0
 11
70.9
 21
252.4
 31
0.0
  0
LINE
  5
50D
100
AcDbEntity
  8
LAY-6
  6
CONTINUOUS
 62
     1
100
AcDbLine
 10
70.9
 20
252.4
 30
0.0
 11
68.9
 21
252.733333
 31
0.0
  0
LINE
  5
50E
100
AcDbEntity
  8
LAY-6
  6
CONTINUOUS
 62
     1
100
AcDbLine
 10
66.9
 20
252.733333
 30
0.0
 11
64.9
 21
252.4
 31
0.0
  0
LINE
  5
50F
100
AcDbEntity
  8
LAY-6
  6
CONTINUOUS
 62
     1
100
AcDbLine
 10
64.9
 20
252.4
 30
0.0
 11
66.9
 21
252.066667
 31
0.0
  0
TEXT
  5
510
100
AcDbEntity
  8
LAY-6
  6
CONTINUOUS
 62
     2
100
AcDbText
 10
55.55
 20
261.500015
 30
0.0
 40
5.0
  1
裏板(別途)
 41
0.595556
  7
EXCADSTD
 72
     5
 11
75.55
 21
261.500015
 31
0.0
100
AcDbText
  0
POLYLINE
  5
511
100
AcDbEntity
  8
LAY-6
  6
CONTINUOUS
 62
     1
100
AcDb2dPolyline
 66
     1
 10
0.0
 20
0.0
 30
0.0
 70
   128
  0
VERTEX
  5
512
100
AcDbEntity
  8
LAY-6
  6
CONTINUOUS
 62
     1
100
AcDbVertex
100
AcDb2dVertex
 10
73.6
 20
248.3
 30
0.0
  0
VERTEX
  5
513
100
AcDbEntity
  8
LAY-6
  6
CONTINUOUS
 62
     1
100
AcDbVertex
100
AcDb2dVertex
 10
80.1
 20
261.000015
 30
0.0
  0
VERTEX
  5
514
100
AcDbEntity
  8
LAY-6
  6
CONTINUOUS
 62
     1
100
AcDbVertex
100
AcDb2dVertex
 10
51.0
 20
261.000015
 30
0.0
  0
SEQEND
  5
515
100
AcDbEntity
  8
LAY-6
  6
CONTINUOUS
 62
     1
  0
LINE
  5
516
100
AcDbEntity
  8
LAY-6
  6
CONTINUOUS
 62
     1
100
AcDbLine
 10
74.214482
 20
250.232233
 30
0.0
 11
73.6
 21
248.3
 31
0.0
  0
LINE
  5
517
100
AcDbEntity
  8
LAY-6
  6
CONTINUOUS
 62
     1
100
AcDbLine
 10
73.6
 20
248.3
 30
0.0
 11
74.807937
 21
249.928496
 31
0.0
  0
LINE
  5
518
100
AcDbEntity
  8
LAY-6
  6
CONTINUOUS
 62
     1
100
AcDbLine
 10
49.3
 20
183.3
 30
0.0
 11
49.3
 21
248.3
 31
0.0
  0
LINE
  5
519
100
AcDbEntity
  8
LAY-6
  6
CONTINUOUS
 62
     1
100
AcDbLine
 10
48.966667
 20
185.3
 30
0.0
 11
49.3
 21
183.3
 31
0.0
  0
LINE
  5
51A
100
AcDbEntity
  8
LAY-6
  6
CONTINUOUS
 62
     1
100
AcDbLine
 10
49.3
 20
183.3
 30
0.0
 11
49.633333
 21
185.3
 31
0.0
  0
LINE
  5
51B
100
AcDbEntity
  8
LAY-6
  6
CONTINUOUS
 62
     1
100
AcDbLine
 10
49.633333
 20
246.3
 30
0.0
 11
49.3
 21
248.3
 31
0.0
  0
LINE
  5
51C
100
AcDbEntity
  8
LAY-6
  6
CONTINUOUS
 62
     1
100
AcDbLine
 10
49.3
 20
248.3
 30
0.0
 11
48.966667
 21
246.3
 31
0.0
  0
TEXT
  5
51D
100
AcDbEntity
  8
LAY-6
  6
CONTINUOUS
 62
     2
100
AcDbText
 10
48.8
 20
211.8
 30
0.0
 40
5.0
  1
６５
 50
90.0
 41
0.672
  7
EXCADSTD
 72
     5
 11
48.8
 21
219.1328
 31
0.0
100
AcDbText
  0
LINE
  5
51E
100
AcDbEntity
  8
LAY-6
  6
CONTINUOUS
 62
     1
100
AcDbLine
 10
70.4
 20
183.3
 30
0.0
 11
48.3
 21
183.3
 31
0.0
  0
LINE
  5
51F
100
AcDbEntity
  8
LAY-6
  6
CONTINUOUS
 62
     1
100
AcDbLine
 10
64.4
 20
248.3
 30
0.0
 11
48.3
 21
248.3
 31
0.0
  0
LINE
  5
520
100
AcDbEntity
  8
LAY-6
  6
CONTINUOUS
 62
     1
100
AcDbLine
 10
64.4
 20
218.3
 30
0.0
 11
56.2
 21
218.3
 31
0.0
  0
TEXT
  5
521
100
AcDbEntity
  8
LAY-6
  6
CONTINUOUS
 62
     2
100
AcDbText
 10
56.7
 20
196.8
 30
0.0
 40
5.0
  1
３５
 50
90.0
 41
0.672
  7
EXCADSTD
 72
     5
 11
56.7
 21
204.1328
 31
0.0
100
AcDbText
  0
LINE
  5
522
100
AcDbEntity
  8
LAY-6
  6
CONTINUOUS
 62
     1
100
AcDbLine
 10
57.2
 20
183.3
 30
0.0
 11
57.2
 21
218.3
 31
0.0
  0
LINE
  5
523
100
AcDbEntity
  8
LAY-6
  6
CONTINUOUS
 62
     1
100
AcDbLine
 10
56.866667
 20
185.3
 30
0.0
 11
57.2
 21
183.3
 31
0.0
  0
LINE
  5
524
100
AcDbEntity
  8
LAY-6
  6
CONTINUOUS
 62
     1
100
AcDbLine
 10
57.2
 20
183.3
 30
0.0
 11
57.533333
 21
185.3
 31
0.0
  0
LINE
  5
525
100
AcDbEntity
  8
LAY-6
  6
CONTINUOUS
 62
     1
100
AcDbLine
 10
57.533333
 20
216.3
 30
0.0
 11
57.2
 21
218.3
 31
0.0
  0
LINE
  5
526
100
AcDbEntity
  8
LAY-6
  6
CONTINUOUS
 62
     1
100
AcDbLine
 10
57.2
 20
218.3
 30
0.0
 11
56.866667
 21
216.3
 31
0.0
  0
LINE
  5
527
100
AcDbEntity
  8
LAY-6
  6
CONTINUOUS
 62
     1
100
AcDbLine
 10
64.4
 20
238.3
 30
0.0
 11
56.2
 21
238.3
 31
0.0
  0
TEXT
  5
528
100
AcDbEntity
  8
LAY-6
  6
CONTINUOUS
 62
     2
100
AcDbText
 10
56.7
 20
224.3
 30
0.0
 40
5.0
  1
２０
 50
90.0
 41
0.672
  7
EXCADSTD
 72
     5
 11
56.7
 21
231.6328
 31
0.0
100
AcDbText
  0
LINE
  5
529
100
AcDbEntity
  8
LAY-6
  6
CONTINUOUS
 62
     1
100
AcDbLine
 10
57.2
 20
218.3
 30
0.0
 11
57.2
 21
238.3
 31
0.0
  0
LINE
  5
52A
100
AcDbEntity
  8
LAY-6
  6
CONTINUOUS
 62
     1
100
AcDbLine
 10
56.866667
 20
220.3
 30
0.0
 11
57.2
 21
218.3
 31
0.0
  0
LINE
  5
52B
100
AcDbEntity
  8
LAY-6
  6
CONTINUOUS
 62
     1
100
AcDbLine
 10
57.2
 20
218.3
 30
0.0
 11
57.533333
 21
220.3
 31
0.0
  0
LINE
  5
52C
100
AcDbEntity
  8
LAY-6
  6
CONTINUOUS
 62
     1
100
AcDbLine
 10
57.533333
 20
236.3
 30
0.0
 11
57.2
 21
238.3
 31
0.0
  0
LINE
  5
52D
100
AcDbEntity
  8
LAY-6
  6
CONTINUOUS
 62
     1
100
AcDbLine
 10
57.2
 20
238.3
 30
0.0
 11
56.866667
 21
236.3
 31
0.0
  0
TEXT
  5
52E
100
AcDbEntity
  8
LAY-6
  6
CONTINUOUS
 62
     2
100
AcDbText
 10
37.225
 20
251.15
 30
0.0
 40
5.0
  1
２－Ｍ５
 41
0.672
  7
EXCADSTD
 72
     5
 11
53.225
 21
251.15
 31
0.0
100
AcDbText
  0
POLYLINE
  5
52F
100
AcDbEntity
  8
LAY-6
  6
CONTINUOUS
 62
     1
100
AcDb2dPolyline
 66
     1
 10
0.0
 20
0.0
 30
0.0
 70
   128
  0
VERTEX
  5
530
100
AcDbEntity
  8
LAY-6
  6
CONTINUOUS
 62
     1
100
AcDbVertex
100
AcDb2dVertex
 10
64.9
 20
238.3
 30
0.0
  0
VERTEX
  5
531
100
AcDbEntity
  8
LAY-6
  6
CONTINUOUS
 62
     1
100
AcDbVertex
100
AcDb2dVertex
 10
52.55
 20
250.65
 30
0.0
  0
VERTEX
  5
532
100
AcDbEntity
  8
LAY-6
  6
CONTINUOUS
 62
     1
100
AcDbVertex
100
AcDb2dVertex
 10
37.9
 20
250.65
 30
0.0
  0
SEQEND
  5
533
100
AcDbEntity
  8
LAY-6
  6
CONTINUOUS
 62
     1
  0
LINE
  5
534
100
AcDbEntity
  8
LAY-6
  6
CONTINUOUS
 62
     1
100
AcDbLine
 10
63.250084
 20
239.478511
 30
0.0
 11
64.9
 21
238.3
 31
0.0
  0
LINE
  5
535
100
AcDbEntity
  8
LAY-6
  6
CONTINUOUS
 62
     1
100
AcDbLine
 10
64.9
 20
238.3
 30
0.0
 11
63.721489
 21
239.949916
 31
0.0
  0
LINE
  5
536
100
AcDbEntity
  8
LAY-6
  6
CONTINUOUS
 62
     1
100
AcDbLine
 10
139.9
 20
182.8
 30
0.0
 11
139.9
 21
166.0
 31
0.0
  0
LINE
  5
537
100
AcDbEntity
  8
LAY-6
  6
CONTINUOUS
 62
     1
100
AcDbLine
 10
64.9
 20
188.8
 30
0.0
 11
64.9
 21
166.0
 31
0.0
  0
TEXT
  5
538
100
AcDbEntity
  8
LAY-6
  6
CONTINUOUS
 62
     2
100
AcDbText
 10
98.4
 20
167.5
 30
0.0
 40
5.0
  1
７５
 41
0.672
  7
EXCADSTD
 72
     5
 11
105.7328
 21
167.5
 31
0.0
100
AcDbText
  0
LINE
  5
539
100
AcDbEntity
  8
LAY-6
  6
CONTINUOUS
 62
     1
100
AcDbLine
 10
139.9
 20
167.0
 30
0.0
 11
64.9
 21
167.0
 31
0.0
  0
LINE
  5
53A
100
AcDbEntity
  8
LAY-6
  6
CONTINUOUS
 62
     1
100
AcDbLine
 10
137.9
 20
166.666667
 30
0.0
 11
139.9
 21
167.0
 31
0.0
  0
LINE
  5
53B
100
AcDbEntity
  8
LAY-6
  6
CONTINUOUS
 62
     1
100
AcDbLine
 10
139.9
 20
167.0
 30
0.0
 11
137.9
 21
167.333333
 31
0.0
  0
LINE
  5
53C
100
AcDbEntity
  8
LAY-6
  6
CONTINUOUS
 62
     1
100
AcDbLine
 10
66.9
 20
167.333333
 30
0.0
 11
64.9
 21
167.0
 31
0.0
  0
LINE
  5
53D
100
AcDbEntity
  8
LAY-6
  6
CONTINUOUS
 62
     1
100
AcDbLine
 10
64.9
 20
167.0
 30
0.0
 11
66.9
 21
166.666667
 31
0.0
  0
LINE
  5
53E
100
AcDbEntity
  8
LAY-6
  6
CONTINUOUS
 62
     1
100
AcDbLine
 10
220.5
 20
113.0
 30
0.0
 11
233.8
 21
113.0
 31
0.0
  0
LINE
  5
53F
100
AcDbEntity
  8
LAY-6
  6
CONTINUOUS
 62
     1
100
AcDbLine
 10
195.3
 20
101.0
 30
0.0
 11
233.8
 21
101.0
 31
0.0
  0
TEXT
  5
540
100
AcDbEntity
  8
LAY-6
  6
CONTINUOUS
 62
     2
100
AcDbText
 10
232.3
 20
103.0
 30
0.0
 40
5.0
  1
１２
 50
90.0
 41
0.672
  7
EXCADSTD
 72
     5
 11
232.3
 21
110.3328
 31
0.0
100
AcDbText
  0
LINE
  5
541
100
AcDbEntity
  8
LAY-6
  6
CONTINUOUS
 62
     1
100
AcDbLine
 10
232.8
 20
101.0
 30
0.0
 11
232.8
 21
113.0
 31
0.0
  0
LINE
  5
542
100
AcDbEntity
  8
LAY-6
  6
CONTINUOUS
 62
     1
100
AcDbLine
 10
232.466667
 20
103.0
 30
0.0
 11
232.8
 21
101.0
 31
0.0
  0
LINE
  5
543
100
AcDbEntity
  8
LAY-6
  6
CONTINUOUS
 62
     1
100
AcDbLine
 10
232.8
 20
101.0
 30
0.0
 11
233.133333
 21
103.0
 31
0.0
  0
LINE
  5
544
100
AcDbEntity
  8
LAY-6
  6
CONTINUOUS
 62
     1
100
AcDbLine
 10
233.133333
 20
111.0
 30
0.0
 11
232.8
 21
113.0
 31
0.0
  0
LINE
  5
545
100
AcDbEntity
  8
LAY-6
  6
CONTINUOUS
 62
     1
100
AcDbLine
 10
232.8
 20
113.0
 30
0.0
 11
232.466667
 21
111.0
 31
0.0
  0
LINE
  5
546
100
AcDbEntity
  8
LAY-6
  6
CONTINUOUS
 62
     1
100
AcDbLine
 10
218.5
 20
119.5
 30
0.0
 11
243.0
 21
119.5
 31
0.0
  0
LINE
  5
547
100
AcDbEntity
  8
LAY-6
  6
CONTINUOUS
 62
     1
100
AcDbLine
 10
218.5
 20
94.5
 30
0.0
 11
243.0
 21
94.5
 31
0.0
  0
TEXT
  5
548
100
AcDbEntity
  8
LAY-6
  6
CONTINUOUS
 62
     2
100
AcDbText
 10
241.5
 20
103.0
 30
0.0
 40
5.0
  1
２５
 50
90.0
 41
0.672
  7
EXCADSTD
 72
     5
 11
241.5
 21
110.3328
 31
0.0
100
AcDbText
  0
LINE
  5
549
100
AcDbEntity
  8
LAY-6
  6
CONTINUOUS
 62
     1
100
AcDbLine
 10
242.0
 20
119.5
 30
0.0
 11
242.0
 21
94.5
 31
0.0
  0
LINE
  5
54A
100
AcDbEntity
  8
LAY-6
  6
CONTINUOUS
 62
     1
100
AcDbLine
 10
242.333333
 20
117.5
 30
0.0
 11
242.0
 21
119.5
 31
0.0
  0
LINE
  5
54B
100
AcDbEntity
  8
LAY-6
  6
CONTINUOUS
 62
     1
100
AcDbLine
 10
242.0
 20
119.5
 30
0.0
 11
241.666667
 21
117.5
 31
0.0
  0
LINE
  5
54C
100
AcDbEntity
  8
LAY-6
  6
CONTINUOUS
 62
     1
100
AcDbLine
 10
241.666667
 20
96.5
 30
0.0
 11
242.0
 21
94.5
 31
0.0
  0
LINE
  5
54D
100
AcDbEntity
  8
LAY-6
  6
CONTINUOUS
 62
     1
100
AcDbLine
 10
242.0
 20
94.5
 30
0.0
 11
242.333333
 21
96.5
 31
0.0
  0
TEXT
  5
54E
100
AcDbEntity
  8
LAY-6
  6
CONTINUOUS
 62
     2
100
AcDbText
 10
120.0
 20
72.8
 30
0.0
 40
5.0
  1
２８
 41
0.672
  7
EXCADSTD
 72
     5
 11
127.3328
 21
72.8
 31
0.0
100
AcDbText
  0
LINE
  5
54F
100
AcDbEntity
  8
LAY-6
  6
CONTINUOUS
 62
     1
100
AcDbLine
 10
110.0
 20
72.3
 30
0.0
 11
138.0
 21
72.3
 31
0.0
  0
LINE
  5
550
100
AcDbEntity
  8
LAY-6
  6
CONTINUOUS
 62
     1
100
AcDbLine
 10
112.0
 20
72.633333
 30
0.0
 11
110.0
 21
72.3
 31
0.0
  0
LINE
  5
551
100
AcDbEntity
  8
LAY-6
  6
CONTINUOUS
 62
     1
100
AcDbLine
 10
110.0
 20
72.3
 30
0.0
 11
112.0
 21
71.966667
 31
0.0
  0
LINE
  5
552
100
AcDbEntity
  8
LAY-6
  6
CONTINUOUS
 62
     1
100
AcDbLine
 10
136.0
 20
71.966667
 30
0.0
 11
138.0
 21
72.3
 31
0.0
  0
LINE
  5
553
100
AcDbEntity
  8
LAY-6
  6
CONTINUOUS
 62
     1
100
AcDbLine
 10
138.0
 20
72.3
 30
0.0
 11
136.0
 21
72.633333
 31
0.0
  0
LINE
  5
554
100
AcDbEntity
  8
LAY-6
  6
CONTINUOUS
 62
     1
100
AcDbLine
 10
138.0
 20
94.0
 30
0.0
 11
138.0
 21
71.3
 31
0.0
  0
TEXT
  5
555
100
AcDbEntity
  8
LAY-6
  6
CONTINUOUS
 62
     2
100
AcDbText
 10
146.0
 20
72.8
 30
0.0
 40
5.0
  1
２４
 41
0.672
  7
EXCADSTD
 72
     5
 11
153.3328
 21
72.8
 31
0.0
100
AcDbText
  0
LINE
  5
556
100
AcDbEntity
  8
LAY-6
  6
CONTINUOUS
 62
     1
100
AcDbLine
 10
138.0
 20
72.3
 30
0.0
 11
162.0
 21
72.3
 31
0.0
  0
LINE
  5
557
100
AcDbEntity
  8
LAY-6
  6
CONTINUOUS
 62
     1
100
AcDbLine
 10
140.0
 20
72.633333
 30
0.0
 11
138.0
 21
72.3
 31
0.0
  0
LINE
  5
558
100
AcDbEntity
  8
LAY-6
  6
CONTINUOUS
 62
     1
100
AcDbLine
 10
138.0
 20
72.3
 30
0.0
 11
140.0
 21
71.966667
 31
0.0
  0
LINE
  5
559
100
AcDbEntity
  8
LAY-6
  6
CONTINUOUS
 62
     1
100
AcDbLine
 10
160.0
 20
71.966667
 30
0.0
 11
162.0
 21
72.3
 31
0.0
  0
LINE
  5
55A
100
AcDbEntity
  8
LAY-6
  6
CONTINUOUS
 62
     1
100
AcDbLine
 10
162.0
 20
72.3
 30
0.0
 11
160.0
 21
72.633333
 31
0.0
  0
LINE
  5
55B
100
AcDbEntity
  8
LAY-6
  6
CONTINUOUS
 62
     1
100
AcDbLine
 10
162.0
 20
102.3
 30
0.0
 11
162.0
 21
71.3
 31
0.0
  0
TEXT
  5
55C
100
AcDbEntity
  8
LAY-6
  6
CONTINUOUS
 62
     2
100
AcDbText
 10
170.0
 20
72.8
 30
0.0
 40
5.0
  1
２４
 41
0.672
  7
EXCADSTD
 72
     5
 11
177.3328
 21
72.8
 31
0.0
100
AcDbText
  0
LINE
  5
55D
100
AcDbEntity
  8
LAY-6
  6
CONTINUOUS
 62
     1
100
AcDbLine
 10
162.0
 20
72.3
 30
0.0
 11
186.0
 21
72.3
 31
0.0
  0
LINE
  5
55E
100
AcDbEntity
  8
LAY-6
  6
CONTINUOUS
 62
     1
100
AcDbLine
 10
164.0
 20
72.633333
 30
0.0
 11
162.0
 21
72.3
 31
0.0
  0
LINE
  5
55F
100
AcDbEntity
  8
LAY-6
  6
CONTINUOUS
 62
     1
100
AcDbLine
 10
162.0
 20
72.3
 30
0.0
 11
164.0
 21
71.966667
 31
0.0
  0
LINE
  5
560
100
AcDbEntity
  8
LAY-6
  6
CONTINUOUS
 62
     1
100
AcDbLine
 10
184.0
 20
71.966667
 30
0.0
 11
186.0
 21
72.3
 31
0.0
  0
LINE
  5
561
100
AcDbEntity
  8
LAY-6
  6
CONTINUOUS
 62
     1
100
AcDbLine
 10
186.0
 20
72.3
 30
0.0
 11
184.0
 21
72.633333
 31
0.0
  0
TEXT
  5
562
100
AcDbEntity
  8
LAY-6
  6
CONTINUOUS
 62
     2
100
AcDbText
 10
194.0
 20
72.8
 30
0.0
 40
5.0
  1
２４
 41
0.672
  7
EXCADSTD
 72
     5
 11
201.3328
 21
72.8
 31
0.0
100
AcDbText
  0
LINE
  5
563
100
AcDbEntity
  8
LAY-6
  6
CONTINUOUS
 62
     1
100
AcDbLine
 10
186.0
 20
94.0
 30
0.0
 11
186.0
 21
71.3
 31
0.0
  0
LINE
  5
564
100
AcDbEntity
  8
LAY-6
  6
CONTINUOUS
 62
     1
100
AcDbLine
 10
210.0
 20
104.5
 30
0.0
 11
210.0
 21
71.3
 31
0.0
  0
LINE
  5
565
100
AcDbEntity
  8
LAY-6
  6
CONTINUOUS
 62
     1
100
AcDbLine
 10
186.0
 20
72.3
 30
0.0
 11
210.0
 21
72.3
 31
0.0
  0
LINE
  5
566
100
AcDbEntity
  8
LAY-6
  6
CONTINUOUS
 62
     1
100
AcDbLine
 10
188.0
 20
72.633333
 30
0.0
 11
186.0
 21
72.3
 31
0.0
  0
LINE
  5
567
100
AcDbEntity
  8
LAY-6
  6
CONTINUOUS
 62
     1
100
AcDbLine
 10
186.0
 20
72.3
 30
0.0
 11
188.0
 21
71.966667
 31
0.0
  0
LINE
  5
568
100
AcDbEntity
  8
LAY-6
  6
CONTINUOUS
 62
     1
100
AcDbLine
 10
208.0
 20
71.966667
 30
0.0
 11
210.0
 21
72.3
 31
0.0
  0
LINE
  5
569
100
AcDbEntity
  8
LAY-6
  6
CONTINUOUS
 62
     1
100
AcDbLine
 10
210.0
 20
72.3
 30
0.0
 11
208.0
 21
72.633333
 31
0.0
  0
LINE
  5
56A
100
AcDbEntity
  8
LAY-6
  6
CONTINUOUS
 62
     1
100
AcDbLine
 10
96.0
 20
106.5
 30
0.0
 11
96.0
 21
61.3
 31
0.0
  0
TEXT
  5
56B
100
AcDbEntity
  8
LAY-6
  6
CONTINUOUS
 62
     2
100
AcDbText
 10
99.0
 20
62.8
 30
0.0
 40
5.0
  1
１４
 41
0.672
  7
EXCADSTD
 72
     5
 11
106.3328
 21
62.8
 31
0.0
100
AcDbText
  0
LINE
  5
56C
100
AcDbEntity
  8
LAY-6
  6
CONTINUOUS
 62
     1
100
AcDbLine
 10
96.0
 20
62.3
 30
0.0
 11
110.0
 21
62.3
 31
0.0
  0
LINE
  5
56D
100
AcDbEntity
  8
LAY-6
  6
CONTINUOUS
 62
     1
100
AcDbLine
 10
98.0
 20
62.633333
 30
0.0
 11
96.0
 21
62.3
 31
0.0
  0
LINE
  5
56E
100
AcDbEntity
  8
LAY-6
  6
CONTINUOUS
 62
     1
100
AcDbLine
 10
96.0
 20
62.3
 30
0.0
 11
98.0
 21
61.966667
 31
0.0
  0
LINE
  5
56F
100
AcDbEntity
  8
LAY-6
  6
CONTINUOUS
 62
     1
100
AcDbLine
 10
108.0
 20
61.966667
 30
0.0
 11
110.0
 21
62.3
 31
0.0
  0
LINE
  5
570
100
AcDbEntity
  8
LAY-6
  6
CONTINUOUS
 62
     1
100
AcDbLine
 10
110.0
 20
62.3
 30
0.0
 11
108.0
 21
62.633333
 31
0.0
  0
LINE
  5
571
100
AcDbEntity
  8
LAY-6
  6
CONTINUOUS
 62
     1
100
AcDbLine
 10
92.0
 20
90.1
 30
0.0
 11
92.0
 21
52.1
 31
0.0
  0
LINE
  5
572
100
AcDbEntity
  8
LAY-6
  6
CONTINUOUS
 62
     1
100
AcDbLine
 10
89.0
 20
82.1
 30
0.0
 11
89.0
 21
52.1
 31
0.0
  0
TEXT
  5
573
100
AcDbEntity
  8
LAY-6
  6
CONTINUOUS
 62
     2
100
AcDbText
 10
94.0
 20
53.6
 30
0.0
 40
5.0
  1
３
 41
0.672
  7
EXCADSTD
 72
     5
 11
97.2
 21
53.6
 31
0.0
100
AcDbText
  0
TEXT
  5
574
100
AcDbEntity
  8
LAY-6
  6
CONTINUOUS
 62
     2
100
AcDbText
 10
98.0
 20
53.6
 30
0.0
 40
5.0
  1
以上
 41
0.672
  7
EXCADSTD
 72
     5
 11
105.3328
 21
53.6
 31
0.0
100
AcDbText
  0
LINE
  5
575
100
AcDbEntity
  8
LAY-6
  6
CONTINUOUS
 62
     1
100
AcDbLine
 10
106.5
 20
53.1
 30
0.0
 11
86.0
 21
53.1
 31
0.0
  0
LINE
  5
576
100
AcDbEntity
  8
LAY-6
  6
CONTINUOUS
 62
     1
100
AcDbLine
 10
94.0
 20
53.433333
 30
0.0
 11
92.0
 21
53.1
 31
0.0
  0
LINE
  5
577
100
AcDbEntity
  8
LAY-6
  6
CONTINUOUS
 62
     1
100
AcDbLine
 10
92.0
 20
53.1
 30
0.0
 11
94.0
 21
52.766667
 31
0.0
  0
LINE
  5
578
100
AcDbEntity
  8
LAY-6
  6
CONTINUOUS
 62
     1
100
AcDbLine
 10
87.0
 20
52.766667
 30
0.0
 11
89.0
 21
53.1
 31
0.0
  0
LINE
  5
579
100
AcDbEntity
  8
LAY-6
  6
CONTINUOUS
 62
     1
100
AcDbLine
 10
89.0
 20
53.1
 30
0.0
 11
87.0
 21
53.433333
 31
0.0
  0
TEXT
  5
57A
100
AcDbEntity
  8
LAY-6
  6
CONTINUOUS
 62
     2
100
AcDbText
 10
257.2
 20
99.0
 30
0.0
 40
5.0
  1
３６
 50
90.0
 41
0.672
  7
EXCADSTD
 72
     5
 11
257.2
 21
106.3328
 31
0.0
100
AcDbText
  0
TEXT
  5
57B
100
AcDbEntity
  8
LAY-6
  6
CONTINUOUS
 62
     2
100
AcDbText
 10
257.2
 20
107.0
 30
0.0
 40
5.0
  1
以上
 50
90.0
 41
0.672
  7
EXCADSTD
 72
     5
 11
257.2
 21
114.3328
 31
0.0
100
AcDbText
  0
LINE
  5
57C
100
AcDbEntity
  8
LAY-6
  6
CONTINUOUS
 62
     1
100
AcDbLine
 10
257.7
 20
89.0
 30
0.0
 11
257.7
 21
125.0
 31
0.0
  0
LINE
  5
57D
100
AcDbEntity
  8
LAY-6
  6
CONTINUOUS
 62
     1
100
AcDbLine
 10
257.366667
 20
91.0
 30
0.0
 11
257.7
 21
89.0
 31
0.0
  0
LINE
  5
57E
100
AcDbEntity
  8
LAY-6
  6
CONTINUOUS
 62
     1
100
AcDbLine
 10
257.7
 20
89.0
 30
0.0
 11
258.033333
 21
91.0
 31
0.0
  0
LINE
  5
57F
100
AcDbEntity
  8
LAY-6
  6
CONTINUOUS
 62
     1
100
AcDbLine
 10
258.033333
 20
123.0
 30
0.0
 11
257.7
 21
125.0
 31
0.0
  0
LINE
  5
580
100
AcDbEntity
  8
LAY-6
  6
CONTINUOUS
 62
     1
100
AcDbLine
 10
257.7
 20
125.0
 30
0.0
 11
257.366667
 21
123.0
 31
0.0
  0
TEXT
  5
581
100
AcDbEntity
  8
LAY-6
  6
CONTINUOUS
 62
     2
100
AcDbText
 10
671.0
 20
122.0
 30
0.0
 40
5.0
  1
３６
 50
90.0
 41
0.672
  7
EXCADSTD
 72
     5
 11
671.0
 21
129.3328
 31
0.0
100
AcDbText
  0
TEXT
  5
582
100
AcDbEntity
  8
LAY-6
  6
CONTINUOUS
 62
     2
100
AcDbText
 10
671.0
 20
130.0
 30
0.0
 40
5.0
  1
以上
 50
90.0
 41
0.672
  7
EXCADSTD
 72
     5
 11
671.0
 21
137.3328
 31
0.0
100
AcDbText
  0
LINE
  5
583
100
AcDbEntity
  8
LAY-6
  6
CONTINUOUS
 62
     1
100
AcDbLine
 10
671.5
 20
112.0
 30
0.0
 11
671.5
 21
148.0
 31
0.0
  0
LINE
  5
584
100
AcDbEntity
  8
LAY-6
  6
CONTINUOUS
 62
     1
100
AcDbLine
 10
671.166667
 20
114.0
 30
0.0
 11
671.5
 21
112.0
 31
0.0
  0
LINE
  5
585
100
AcDbEntity
  8
LAY-6
  6
CONTINUOUS
 62
     1
100
AcDbLine
 10
671.5
 20
112.0
 30
0.0
 11
671.833333
 21
114.0
 31
0.0
  0
LINE
  5
586
100
AcDbEntity
  8
LAY-6
  6
CONTINUOUS
 62
     1
100
AcDbLine
 10
671.833333
 20
146.0
 30
0.0
 11
671.5
 21
148.0
 31
0.0
  0
LINE
  5
587
100
AcDbEntity
  8
LAY-6
  6
CONTINUOUS
 62
     1
100
AcDbLine
 10
671.5
 20
148.0
 30
0.0
 11
671.166667
 21
146.0
 31
0.0
  0
TEXT
  5
588
100
AcDbEntity
  8
LAY-6
  6
CONTINUOUS
 62
     2
100
AcDbText
 10
172.7
 20
317.3
 30
0.0
 40
5.0
  1
２０×５０
 41
0.672
  7
EXCADSTD
 72
     5
 11
192.7
 21
317.3
 31
0.0
100
AcDbText
  0
LINE
  5
589
100
AcDbEntity
  8
LAY-6
  6
CONTINUOUS
 62
     1
100
AcDbLine
 10
109.230127
 20
284.85
 30
0.0
 11
117.8
 21
284.85
 31
0.0
  0
LINE
  5
58A
100
AcDbEntity
  8
LAY-6
  6
CONTINUOUS
 62
     1
100
AcDbLine
 10
109.230127
 20
282.35
 30
0.0
 11
117.8
 21
282.35
 31
0.0
  0
LINE
  5
58B
100
AcDbEntity
  8
LAY-6
  6
CONTINUOUS
 62
     1
100
AcDbLine
 10
99.9
 20
283.6
 30
0.0
 11
109.230127
 21
286.1
 31
0.0
  0
LINE
  5
58C
100
AcDbEntity
  8
LAY-6
  6
CONTINUOUS
 62
     1
100
AcDbLine
 10
99.9
 20
283.6
 30
0.0
 11
109.230127
 21
281.1
 31
0.0
  0
LINE
  5
58D
100
AcDbEntity
  8
LAY-6
  6
CONTINUOUS
 62
     1
100
AcDbLine
 10
117.8
 20
284.85
 30
0.0
 11
117.8
 21
282.35
 31
0.0
  0
LINE
  5
58E
100
AcDbEntity
  8
LAY-6
  6
CONTINUOUS
 62
     1
100
AcDbLine
 10
109.230127
 20
281.1
 30
0.0
 11
109.230127
 21
282.35
 31
0.0
  0
LINE
  5
58F
100
AcDbEntity
  8
LAY-6
  6
CONTINUOUS
 62
     1
100
AcDbLine
 10
109.230127
 20
284.85
 30
0.0
 11
109.230127
 21
286.1
 31
0.0
  0
TEXT
  5
590
100
AcDbEntity
  8
LAY-6
  6
CONTINUOUS
 62
     2
100
AcDbText
 10
120.0
 20
281.0
 30
0.0
 40
5.0
  1
スプリング巻き方向
 41
0.672
  7
EXCADSTD
 72
     5
 11
156.0
 21
281.0
 31
0.0
100
AcDbText
  0
TEXT
  5
591
100
AcDbEntity
  8
LAY-6
  6
CONTINUOUS
 62
     2
100
AcDbText
 10
127.6
 20
275.5
 30
0.0
 40
5.0
  1
（本体に表示）
 41
0.672
  7
EXCADSTD
 72
     5
 11
155.6
 21
275.5
 31
0.0
100
AcDbText
  0
INSERT
  5
592
100
AcDbEntity
  8
LAY-6
  6
CONTINUOUS
 62
     0
100
AcDbBlockReference
  2
SYM-3
 10
647.9
 20
520.8
 30
0.0
  0
INSERT
  5
593
100
AcDbEntity
  8
LAY-6
  6
CONTINUOUS
 62
     0
100
AcDbBlockReference
  2
SYM-3
 10
571.31
 20
520.86
 30
0.0
  0
INSERT
  5
594
100
AcDbEntity
  8
LAY-6
  6
CONTINUOUS
 62
     0
100
AcDbBlockReference
  2
SYM-3
 10
556.74
 20
488.01
 30
0.0
 50
90.0
  0
INSERT
  5
595
100
AcDbEntity
  8
LAY-6
  6
CONTINUOUS
 62
     0
100
AcDbBlockReference
  2
SYM-3
 10
580.15
 20
282.82
 30
0.0
  0
TEXT
  5
596
100
AcDbEntity
  8
LAY-6
  6
CONTINUOUS
 62
     2
100
AcDbText
 10
640.9
 20
243.0
 30
0.0
 40
5.0
  1
調整範囲
 50
90.0
 41
0.672
  7
EXCADSTD
 72
     5
 11
640.9
 21
259.0
 31
0.0
100
AcDbText
  0
INSERT
  5
597
100
AcDbEntity
  8
LAY-6
  6
CONTINUOUS
 62
     0
100
AcDbBlockReference
  2
SYM-3
 10
629.3
 20
246.1
 30
0.0
 50
90.0
  0
LINE
  5
598
100
AcDbEntity
  8
LAY-6
  6
CONTINUOUS
 62
     1
100
AcDbLine
 10
585.0
 20
228.5
 30
0.0
 11
585.0
 21
203.4
 31
0.0
  0
TEXT
  5
599
100
AcDbEntity
  8
LAY-6
  6
CONTINUOUS
 62
     2
100
AcDbText
 10
542.45
 20
204.9
 30
0.0
 40
5.0
  1
調整範囲　２８～６２
 41
0.672
  7
EXCADSTD
 72
     5
 11
582.45
 21
204.9
 31
0.0
100
AcDbText
  0
LINE
  5
59A
100
AcDbEntity
  8
LAY-6
  6
CONTINUOUS
 62
     1
100
AcDbLine
 10
585.0
 20
204.4
 30
0.0
 11
539.9
 21
204.4
 31
0.0
  0
LINE
  5
59B
100
AcDbEntity
  8
LAY-6
  6
CONTINUOUS
 62
     1
100
AcDbLine
 10
583.0
 20
204.066667
 30
0.0
 11
585.0
 21
204.4
 31
0.0
  0
LINE
  5
59C
100
AcDbEntity
  8
LAY-6
  6
CONTINUOUS
 62
     1
100
AcDbLine
 10
585.0
 20
204.4
 30
0.0
 11
583.0
 21
204.733333
 31
0.0
  0
LINE
  5
59D
100
AcDbEntity
  8
LAY-6
  6
CONTINUOUS
 62
     1
100
AcDbLine
 10
541.9
 20
204.733333
 30
0.0
 11
539.9
 21
204.4
 31
0.0
  0
LINE
  5
59E
100
AcDbEntity
  8
LAY-6
  6
CONTINUOUS
 62
     1
100
AcDbLine
 10
539.9
 20
204.4
 30
0.0
 11
541.9
 21
204.066667
 31
0.0
  0
TEXT
  5
59F
100
AcDbEntity
  8
LAY-6
  6
CONTINUOUS
 62
     2
100
AcDbText
 10
580.5
 20
89.2
 30
0.0
 40
6.0
  1
軸芯
 41
0.672
  7
EXCADSTD
 72
     5
 11
589.29936
 21
89.2
 31
0.0
100
AcDbText
  0
TEXT
  5
5A0
100
AcDbEntity
  8
LAY-6
  6
CONTINUOUS
 62
     2
100
AcDbText
 10
98.0
 20
315.3
 30
0.0
 40
5.0
  1
※
 41
0.672
  7
EXCADSTD
 72
     5
 11
101.2
 21
315.3
 31
0.0
100
AcDbText
  0
TEXT
  5
5A1
100
AcDbEntity
  8
LAY-6
  6
CONTINUOUS
 62
     2
100
AcDbText
 10
102.0
 20
315.3
 30
0.0
 40
5.0
  1
１２
 41
0.672
  7
EXCADSTD
 72
     5
 11
109.3328
 21
315.3
 31
0.0
100
AcDbText
  0
LINE
  5
5A2
100
AcDbEntity
  8
LAY-6
  6
CONTINUOUS
 62
     1
100
AcDbLine
 10
98.0
 20
309.3
 30
0.0
 11
98.0
 21
315.8
 31
0.0
  0
LINE
  5
5A3
100
AcDbEntity
  8
LAY-6
  6
CONTINUOUS
 62
     1
100
AcDbLine
 10
98.0
 20
314.8
 30
0.0
 11
110.0
 21
314.8
 31
0.0
  0
LINE
  5
5A4
100
AcDbEntity
  8
LAY-6
  6
CONTINUOUS
 62
     1
100
AcDbLine
 10
100.0
 20
315.133333
 30
0.0
 11
98.0
 21
314.8
 31
0.0
  0
LINE
  5
5A5
100
AcDbEntity
  8
LAY-6
  6
CONTINUOUS
 62
     1
100
AcDbLine
 10
98.0
 20
314.8
 30
0.0
 11
100.0
 21
314.466667
 31
0.0
  0
LINE
  5
5A6
100
AcDbEntity
  8
LAY-6
  6
CONTINUOUS
 62
     1
100
AcDbLine
 10
108.0
 20
314.466667
 30
0.0
 11
110.0
 21
314.8
 31
0.0
  0
LINE
  5
5A7
100
AcDbEntity
  8
LAY-6
  6
CONTINUOUS
 62
     1
100
AcDbLine
 10
110.0
 20
314.8
 30
0.0
 11
108.0
 21
315.133333
 31
0.0
  0
LINE
  5
5A8
100
AcDbEntity
  8
LAY-6
  6
CONTINUOUS
 62
     1
100
AcDbLine
 10
148.0
 20
309.3
 30
0.0
 11
148.0
 21
315.8
 31
0.0
  0
TEXT
  5
5A9
100
AcDbEntity
  8
LAY-6
  6
CONTINUOUS
 62
     2
100
AcDbText
 10
125.0
 20
315.3
 30
0.0
 40
5.0
  1
３８
 41
0.672
  7
EXCADSTD
 72
     5
 11
132.3328
 21
315.3
 31
0.0
100
AcDbText
  0
LINE
  5
5AA
100
AcDbEntity
  8
LAY-6
  6
CONTINUOUS
 62
     1
100
AcDbLine
 10
148.0
 20
314.8
 30
0.0
 11
110.0
 21
314.8
 31
0.0
  0
LINE
  5
5AB
100
AcDbEntity
  8
LAY-6
  6
CONTINUOUS
 62
     1
100
AcDbLine
 10
146.0
 20
314.466667
 30
0.0
 11
148.0
 21
314.8
 31
0.0
  0
LINE
  5
5AC
100
AcDbEntity
  8
LAY-6
  6
CONTINUOUS
 62
     1
100
AcDbLine
 10
148.0
 20
314.8
 30
0.0
 11
146.0
 21
315.133333
 31
0.0
  0
LINE
  5
5AD
100
AcDbEntity
  8
LAY-6
  6
CONTINUOUS
 62
     1
100
AcDbLine
 10
112.0
 20
315.133333
 30
0.0
 11
110.0
 21
314.8
 31
0.0
  0
LINE
  5
5AE
100
AcDbEntity
  8
LAY-6
  6
CONTINUOUS
 62
     1
100
AcDbLine
 10
110.0
 20
314.8
 30
0.0
 11
112.0
 21
314.466667
 31
0.0
  0
TEXT
  5
5AF
100
AcDbEntity
  8
LAY-6
  6
CONTINUOUS
 62
     2
100
AcDbText
 10
104.0
 20
338.3
 30
0.0
 40
5.0
  1
φ
 41
0.672
  7
EXCADSTD
 72
     5
 11
107.2
 21
338.3
 31
0.0
100
AcDbText
  0
TEXT
  5
5B0
100
AcDbEntity
  8
LAY-6
  6
CONTINUOUS
 62
     2
100
AcDbText
 10
108.0
 20
338.3
 30
0.0
 40
5.0
  1
２８
 41
0.672
  7
EXCADSTD
 72
     5
 11
115.3328
 21
338.3
 31
0.0
100
AcDbText
  0
LINE
  5
5B1
100
AcDbEntity
  8
LAY-6
  6
CONTINUOUS
 62
     1
100
AcDbLine
 10
124.0
 20
337.8
 30
0.0
 11
96.0
 21
337.8
 31
0.0
  0
LINE
  5
5B2
100
AcDbEntity
  8
LAY-6
  6
CONTINUOUS
 62
     1
100
AcDbLine
 10
122.0
 20
337.466667
 30
0.0
 11
124.0
 21
337.8
 31
0.0
  0
LINE
  5
5B3
100
AcDbEntity
  8
LAY-6
  6
CONTINUOUS
 62
     1
100
AcDbLine
 10
124.0
 20
337.8
 30
0.0
 11
122.0
 21
338.133333
 31
0.0
  0
LINE
  5
5B4
100
AcDbEntity
  8
LAY-6
  6
CONTINUOUS
 62
     1
100
AcDbLine
 10
98.0
 20
338.133333
 30
0.0
 11
96.0
 21
337.8
 31
0.0
  0
LINE
  5
5B5
100
AcDbEntity
  8
LAY-6
  6
CONTINUOUS
 62
     1
100
AcDbLine
 10
96.0
 20
337.8
 30
0.0
 11
98.0
 21
337.466667
 31
0.0
  0
LINE
  5
5B6
100
AcDbEntity
  8
LAY-6
  6
CONTINUOUS
 62
     1
100
AcDbLine
 10
720.0
 20
476.499961
 30
0.0
 11
720.0
 21
445.6
 31
0.0
  0
LINE
  5
5B7
100
AcDbEntity
  8
LAY-6
  6
CONTINUOUS
 62
     1
100
AcDbLine
 10
585.0
 20
476.499961
 30
0.0
 11
585.0
 21
445.6
 31
0.0
  0
TEXT
  5
5B8
100
AcDbEntity
  8
LAY-6
  6
CONTINUOUS
 62
     2
100
AcDbText
 10
646.5
 20
447.1
 30
0.0
 40
5.0
  1
１３５
 41
0.672
  7
EXCADSTD
 72
     5
 11
658.5
 21
447.1
 31
0.0
100
AcDbText
  0
LINE
  5
5B9
100
AcDbEntity
  8
LAY-6
  6
CONTINUOUS
 62
     1
100
AcDbLine
 10
720.0
 20
446.6
 30
0.0
 11
585.0
 21
446.6
 31
0.0
  0
LINE
  5
5BA
100
AcDbEntity
  8
LAY-6
  6
CONTINUOUS
 62
     1
100
AcDbLine
 10
718.0
 20
446.266667
 30
0.0
 11
720.0
 21
446.6
 31
0.0
  0
LINE
  5
5BB
100
AcDbEntity
  8
LAY-6
  6
CONTINUOUS
 62
     1
100
AcDbLine
 10
720.0
 20
446.6
 30
0.0
 11
718.0
 21
446.933333
 31
0.0
  0
LINE
  5
5BC
100
AcDbEntity
  8
LAY-6
  6
CONTINUOUS
 62
     1
100
AcDbLine
 10
587.0
 20
446.933333
 30
0.0
 11
585.0
 21
446.6
 31
0.0
  0
LINE
  5
5BD
100
AcDbEntity
  8
LAY-6
  6
CONTINUOUS
 62
     1
100
AcDbLine
 10
585.0
 20
446.6
 30
0.0
 11
587.0
 21
446.266667
 31
0.0
  0
LINE
  5
5BE
100
AcDbEntity
  8
LAY-6
  6
CONTINUOUS
 62
     1
100
AcDbLine
 10
220.0
 20
96.0
 30
0.0
 11
220.0
 21
61.4
 31
0.0
  0
LINE
  5
5BF
100
AcDbEntity
  8
LAY-6
  6
CONTINUOUS
 62
     1
100
AcDbLine
 10
110.0
 20
90.1
 30
0.0
 11
110.0
 21
61.4
 31
0.0
  0
TEXT
  5
5C0
100
AcDbEntity
  8
LAY-6
  6
CONTINUOUS
 62
     2
100
AcDbText
 10
159.0
 20
62.9
 30
0.0
 40
5.0
  1
１１０
 41
0.672
  7
EXCADSTD
 72
     5
 11
171.0
 21
62.9
 31
0.0
100
AcDbText
  0
LINE
  5
5C1
100
AcDbEntity
  8
LAY-6
  6
CONTINUOUS
 62
     1
100
AcDbLine
 10
220.0
 20
62.4
 30
0.0
 11
110.0
 21
62.4
 31
0.0
  0
LINE
  5
5C2
100
AcDbEntity
  8
LAY-6
  6
CONTINUOUS
 62
     1
100
AcDbLine
 10
218.0
 20
62.066667
 30
0.0
 11
220.0
 21
62.4
 31
0.0
  0
LINE
  5
5C3
100
AcDbEntity
  8
LAY-6
  6
CONTINUOUS
 62
     1
100
AcDbLine
 10
220.0
 20
62.4
 30
0.0
 11
218.0
 21
62.733333
 31
0.0
  0
LINE
  5
5C4
100
AcDbEntity
  8
LAY-6
  6
CONTINUOUS
 62
     1
100
AcDbLine
 10
112.0
 20
62.733333
 30
0.0
 11
110.0
 21
62.4
 31
0.0
  0
LINE
  5
5C5
100
AcDbEntity
  8
LAY-6
  6
CONTINUOUS
 62
     1
100
AcDbLine
 10
110.0
 20
62.4
 30
0.0
 11
112.0
 21
62.066667
 31
0.0
  0
TEXT
  5
5C6
100
AcDbEntity
  8
LAY-6
  6
CONTINUOUS
 62
     2
100
AcDbText
 10
406.828367
 20
19.274519
 30
0.0
 40
10.0
  1
オートパワーヒンジ　ＨＣ－８Ｔ　納まり図
 41
0.672
  7
EXCADSTD
 72
     5
 11
566.828367
 21
19.274519
 31
0.0
100
AcDbText
  0
CIRCLE
  5
5C7
100
AcDbEntity
  8
LAY-6
  6
CONTINUOUS
 62
     1
100
AcDbCircle
 10
181.8
 20
559.6
 30
0.0
 40
5.0
  0
TEXT
  5
5C8
100
AcDbEntity
  8
LAY-6
  6
CONTINUOUS
 62
     2
100
AcDbText
 10
179.264466
 20
556.064466
 30
0.0
 40
7.071068
  1
1
  7
EXCADSTD
 72
     5
 11
183.86066
 21
556.064466
 31
0.0
100
AcDbText
  0
POLYLINE
  5
5C9
100
AcDbEntity
  8
LAY-6
  6
CONTINUOUS
 62
     1
100
AcDb2dPolyline
 66
     1
 10
0.0
 20
0.0
 30
0.0
 70
   128
  0
VERTEX
  5
5CA
100
AcDbEntity
  8
LAY-6
  6
CONTINUOUS
 62
     1
100
AcDbVertex
100
AcDb2dVertex
 10
175.4
 20
517.1
 30
0.0
  0
VERTEX
  5
5CB
100
AcDbEntity
  8
LAY-6
  6
CONTINUOUS
 62
     1
100
AcDbVertex
100
AcDb2dVertex
 10
181.055453
 20
554.655746
 30
0.0
  0
SEQEND
  5
5CC
100
AcDbEntity
  8
LAY-6
  6
CONTINUOUS
 62
     1
  0
LINE
  5
5CD
100
AcDbEntity
  8
LAY-6
  6
CONTINUOUS
 62
     1
100
AcDbLine
 10
175.368202
 20
519.127338
 30
0.0
 11
175.4
 21
517.1
 31
0.0
  0
LINE
  5
5CE
100
AcDbEntity
  8
LAY-6
  6
CONTINUOUS
 62
     1
100
AcDbLine
 10
175.4
 20
517.1
 30
0.0
 11
176.027436
 21
519.028065
 31
0.0
  0
CIRCLE
  5
5CF
100
AcDbEntity
  8
LAY-6
  6
CONTINUOUS
 62
     1
100
AcDbCircle
 10
213.5
 20
437.5
 30
0.0
 40
5.0
  0
TEXT
  5
5D0
100
AcDbEntity
  8
LAY-6
  6
CONTINUOUS
 62
     2
100
AcDbText
 10
210.964466
 20
433.964466
 30
0.0
 40
7.071068
  1
2
  7
EXCADSTD
 72
     5
 11
215.56066
 21
433.964466
 31
0.0
100
AcDbText
  0
POLYLINE
  5
5D1
100
AcDbEntity
  8
LAY-6
  6
CONTINUOUS
 62
     1
100
AcDb2dPolyline
 66
     1
 10
0.0
 20
0.0
 30
0.0
 70
   128
  0
VERTEX
  5
5D2
100
AcDbEntity
  8
LAY-6
  6
CONTINUOUS
 62
     1
100
AcDbVertex
100
AcDb2dVertex
 10
192.9
 20
488.5
 30
0.0
  0
VERTEX
  5
5D3
100
AcDbEntity
  8
LAY-6
  6
CONTINUOUS
 62
     1
100
AcDbVertex
100
AcDb2dVertex
 10
211.627384
 20
442.136088
 30
0.0
  0
SEQEND
  5
5D4
100
AcDbEntity
  8
LAY-6
  6
CONTINUOUS
 62
     1
  0
LINE
  5
5D5
100
AcDbEntity
  8
LAY-6
  6
CONTINUOUS
 62
     1
100
AcDbLine
 10
193.958119
 20
486.770406
 30
0.0
 11
192.9
 21
488.5
 31
0.0
  0
LINE
  5
5D6
100
AcDbEntity
  8
LAY-6
  6
CONTINUOUS
 62
     1
100
AcDbLine
 10
192.9
 20
488.5
 30
0.0
 11
193.339974
 21
486.520724
 31
0.0
  0
CIRCLE
  5
5D7
100
AcDbEntity
  8
LAY-6
  6
CONTINUOUS
 62
     1
100
AcDbCircle
 10
151.0
 20
377.0
 30
0.0
 40
5.0
  0
TEXT
  5
5D8
100
AcDbEntity
  8
LAY-6
  6
CONTINUOUS
 62
     2
100
AcDbText
 10
148.464466
 20
373.464466
 30
0.0
 40
7.071068
  1
3
  7
EXCADSTD
 72
     5
 11
153.06066
 21
373.464466
 31
0.0
100
AcDbText
  0
POLYLINE
  5
5D9
100
AcDbEntity
  8
LAY-6
  6
CONTINUOUS
 62
     1
100
AcDb2dPolyline
 66
     1
 10
0.0
 20
0.0
 30
0.0
 70
   128
  0
VERTEX
  5
5DA
100
AcDbEntity
  8
LAY-6
  6
CONTINUOUS
 62
     1
100
AcDbVertex
100
AcDb2dVertex
 10
118.0
 20
366.0
 30
0.0
  0
VERTEX
  5
5DB
100
AcDbEntity
  8
LAY-6
  6
CONTINUOUS
 62
     1
100
AcDbVertex
100
AcDb2dVertex
 10
146.256584
 20
375.418861
 30
0.0
  0
SEQEND
  5
5DC
100
AcDbEntity
  8
LAY-6
  6
CONTINUOUS
 62
     1
  0
LINE
  5
5DD
100
AcDbEntity
  8
LAY-6
  6
CONTINUOUS
 62
     1
100
AcDbLine
 10
119.791957
 20
366.948683
 30
0.0
 11
118.0
 21
366.0
 31
0.0
  0
LINE
  5
5DE
100
AcDbEntity
  8
LAY-6
  6
CONTINUOUS
 62
     1
100
AcDbLine
 10
118.0
 20
366.0
 30
0.0
 11
120.002776
 21
366.316228
 31
0.0
  0
CIRCLE
  5
5DF
100
AcDbEntity
  8
LAY-6
  6
CONTINUOUS
 62
     1
100
AcDbCircle
 10
181.0
 20
166.0
 30
0.0
 40
5.0
  0
TEXT
  5
5E0
100
AcDbEntity
  8
LAY-6
  6
CONTINUOUS
 62
     2
100
AcDbText
 10
178.464466
 20
162.464466
 30
0.0
 40
7.071068
  1
4
  7
EXCADSTD
 72
     5
 11
183.06066
 21
162.464466
 31
0.0
100
AcDbText
  0
POLYLINE
  5
5E1
100
AcDbEntity
  8
LAY-6
  6
CONTINUOUS
 62
     1
100
AcDb2dPolyline
 66
     1
 10
0.0
 20
0.0
 30
0.0
 70
   128
  0
VERTEX
  5
5E2
100
AcDbEntity
  8
LAY-6
  6
CONTINUOUS
 62
     1
100
AcDbVertex
100
AcDb2dVertex
 10
121.0
 20
203.0
 30
0.0
  0
VERTEX
  5
5E3
100
AcDbEntity
  8
LAY-6
  6
CONTINUOUS
 62
     1
100
AcDbVertex
100
AcDb2dVertex
 10
176.744146
 20
168.624444
 30
0.0
  0
SEQEND
  5
5E4
100
AcDbEntity
  8
LAY-6
  6
CONTINUOUS
 62
     1
  0
LINE
  5
5E5
100
AcDbEntity
  8
LAY-6
  6
CONTINUOUS
 62
     1
100
AcDbLine
 10
122.877305
 20
202.233946
 30
0.0
 11
121.0
 21
203.0
 31
0.0
  0
LINE
  5
5E6
100
AcDbEntity
  8
LAY-6
  6
CONTINUOUS
 62
     1
100
AcDbLine
 10
121.0
 20
203.0
 30
0.0
 11
122.527379
 21
201.666499
 31
0.0
  0
POLYLINE
  5
5E7
100
AcDbEntity
  8
LAY-6
  6
CONTINUOUS
 62
     1
100
AcDb2dPolyline
 66
     1
 10
0.0
 20
0.0
 30
0.0
 70
   128
  0
VERTEX
  5
5E8
100
AcDbEntity
  8
LAY-6
  6
CONTINUOUS
 62
     1
100
AcDbVertex
100
AcDb2dVertex
 10
118.999027
 20
300.3
 30
0.0
  0
VERTEX
  5
5E9
100
AcDbEntity
  8
LAY-6
  6
CONTINUOUS
 62
     1
100
AcDbVertex
100
AcDb2dVertex
 10
151.4
 20
336.808881
 30
0.0
  0
VERTEX
  5
5EA
100
AcDbEntity
  8
LAY-6
  6
CONTINUOUS
 62
     1
100
AcDbVertex
100
AcDb2dVertex
 10
204.322561
 20
336.808881
 30
0.0
  0
SEQEND
  5
5EB
100
AcDbEntity
  8
LAY-6
  6
CONTINUOUS
 62
     1
  0
LINE
  5
5EC
100
AcDbEntity
  8
LAY-6
  6
CONTINUOUS
 62
     1
100
AcDbLine
 10
120.077268
 20
302.017122
 30
0.0
 11
118.999027
 21
300.3
 31
0.0
  0
LINE
  5
5ED
100
AcDbEntity
  8
LAY-6
  6
CONTINUOUS
 62
     1
100
AcDbLine
 10
118.999027
 20
300.3
 30
0.0
 11
120.575889
 21
301.574605
 31
0.0
  0
TEXT
  5
5EE
100
AcDbEntity
  8
LAY-6
  6
CONTINUOUS
 62
     2
100
AcDbText
 10
151.861281
 20
337.308881
 30
0.0
 40
5.0
  1
スプリングセットピン径φ６
 41
0.672
  7
EXCADSTD
 72
     5
 11
203.861281
 21
337.308881
 31
0.0
100
AcDbText
  0
TEXT
  5
5EF
100
AcDbEntity
  8
LAY-6
  6
CONTINUOUS
 62
     2
100
AcDbText
 10
409.625
 20
104.875
 30
0.0
 40
8.0
  1
必ず戸当りを設置して下さい。
 41
0.63
  7
EXCADSTD
 72
     5
 11
493.625
 21
104.875
 31
0.0
100
AcDbText
  0
POLYLINE
  5
5F0
100
AcDbEntity
  8
LAY-6
  6
CONTINUOUS
 62
     1
100
AcDb2dPolyline
 66
     1
 10
0.0
 20
0.0
 30
0.0
 70
   128
  0
VERTEX
  5
5F1
100
AcDbEntity
  8
LAY-6
  6
CONTINUOUS
 62
     1
100
AcDbVertex
100
AcDb2dVertex
 10
394.675
 20
86.975
 30
0.0
  0
VERTEX
  5
5F2
100
AcDbEntity
  8
LAY-6
  6
CONTINUOUS
 62
     1
100
AcDbVertex
100
AcDb2dVertex
 10
408.475
 20
104.375
 30
0.0
  0
VERTEX
  5
5F3
100
AcDbEntity
  8
LAY-6
  6
CONTINUOUS
 62
     1
100
AcDbVertex
100
AcDb2dVertex
 10
490.2
 20
104.375
 30
0.0
  0
SEQEND
  5
5F4
100
AcDbEntity
  8
LAY-6
  6
CONTINUOUS
 62
     1
  0
LINE
  5
5F5
100
AcDbEntity
  8
LAY-6
  6
CONTINUOUS
 62
     1
100
AcDbLine
 10
395.656624
 20
88.749127
 30
0.0
 11
394.675
 21
86.975
 31
0.0
  0
LINE
  5
5F6
100
AcDbEntity
  8
LAY-6
  6
CONTINUOUS
 62
     1
100
AcDbLine
 10
394.675
 20
86.975
 30
0.0
 11
396.178955
 21
88.334864
 31
0.0
  0
TEXT
  5
5F7
100
AcDbEntity
  8
LAY-6
  6
CONTINUOUS
 62
     2
100
AcDbText
 10
383.65
 20
74.5
 30
0.0
 40
8.0
  1
ドア
 41
0.63
  7
EXCADSTD
 72
     5
 11
394.6492
 21
74.5
 31
0.0
100
AcDbText
  0
TEXT
  5
5F8
100
AcDbEntity
  8
LAY-6
  6
CONTINUOUS
 62
     2
100
AcDbText
 10
587.2
 20
63.0
 30
0.0
 40
8.0
  1
※　本図は右勝手を示す。
 41
0.672
  7
EXCADSTD
 72
     5
 11
664.000001
 21
63.0
 31
0.0
100
AcDbText
  0
TEXT
  5
5F9
100
AcDbEntity
  8
LAY-6
  6
CONTINUOUS
 62
     2
100
AcDbText
 10
587.2
 20
53.0
 30
0.0
 40
8.0
  1
※　閉扉速度調整穴、スプリング調整窓には付属のカクシ蓋をご使用下さい。
 41
0.672
  7
EXCADSTD
 72
     5
 11
811.200003
 21
53.0
 31
0.0
100
AcDbText
  0
TEXT
  5
5FA
100
AcDbEntity
  8
LAY-6
  6
CONTINUOUS
 62
     2
100
AcDbText
 10
161.2
 20
310.7
 30
0.0
 40
5.0
  1
※部寸法
 41
0.672
  7
EXCADSTD
 72
     5
 11
177.2
 21
310.7
 31
0.0
100
AcDbText
  0
TEXT
  5
5FB
100
AcDbEntity
  8
LAY-6
  6
CONTINUOUS
 62
     2
100
AcDbText
 10
161.2
 20
304.7
 30
0.0
 40
5.0
  1
ドア厚４０～５０㎜の場合　１４
 41
0.672
  7
EXCADSTD
 72
     5
 11
221.2
 21
304.7
 31
0.0
100
AcDbText
  0
LINE
  5
5FC
100
AcDbEntity
  8
LAY-6
  6
CONTINUOUS
 62
     1
100
AcDbLine
 10
160.1
 20
310.6
 30
0.0
 11
177.9
 21
310.6
 31
0.0
  0
LINE
  5
5FD
100
AcDbEntity
  8
LAY-6
  6
CONTINUOUS
 62
     1
100
AcDbLine
 10
160.1
 20
304.5
 30
0.0
 11
221.5
 21
304.5
 31
0.0
  0
TEXT
  5
5FE
100
AcDbEntity
  8
LAY-6
  6
CONTINUOUS
 62
     2
100
AcDbText
 10
330.7
 20
20.4
 30
0.0
 40
6.0
  1
Ｈ１６．１２．１４
 41
0.672
  7
EXCADSTD
 72
     5
 11
373.900002
 21
20.4
 31
0.0
100
AcDbText
  0
LINE
  5
5FF
100
AcDbEntity
  8
LAY-6
  6
CONTINUOUS
 62
     1
100
AcDbLine
 10
411.09997
 20
424.8
 30
0.0
 11
369.6
 21
424.8
 31
0.0
  0
LINE
  5
600
100
AcDbEntity
  8
LAY-6
  6
CONTINUOUS
 62
     1
100
AcDbLine
 10
405.1
 20
220.3
 30
0.0
 11
369.6
 21
220.3
 31
0.0
  0
LINE
  5
601
100
AcDbEntity
  8
LAY-6
  6
CONTINUOUS
 62
     1
100
AcDbLine
 10
371.1
 20
424.8
 30
0.0
 11
371.1
 21
220.3
 31
0.0
  0
LINE
  5
602
100
AcDbEntity
  8
LAY-6
  6
CONTINUOUS
 62
     1
100
AcDbLine
 10
371.433333
 20
422.8
 30
0.0
 11
371.1
 21
424.8
 31
0.0
  0
LINE
  5
603
100
AcDbEntity
  8
LAY-6
  6
CONTINUOUS
 62
     1
100
AcDbLine
 10
371.1
 20
424.8
 30
0.0
 11
370.766667
 21
422.8
 31
0.0
  0
LINE
  5
604
100
AcDbEntity
  8
LAY-6
  6
CONTINUOUS
 62
     1
100
AcDbLine
 10
370.766667
 20
222.3
 30
0.0
 11
371.1
 21
220.3
 31
0.0
  0
LINE
  5
605
100
AcDbEntity
  8
LAY-6
  6
CONTINUOUS
 62
     1
100
AcDbLine
 10
371.1
 20
220.3
 30
0.0
 11
371.433333
 21
222.3
 31
0.0
  0
TEXT
  5
606
100
AcDbEntity
  8
LAY-6
  6
CONTINUOUS
 62
     2
100
AcDbText
 10
370.6
 20
316.55
 30
0.0
 40
5.0
  1
３０８
 50
90.0
 41
0.672
  7
EXCADSTD
 72
     5
 11
370.6
 21
328.55
 31
0.0
100
AcDbText
  0
LINE
  5
607
100
AcDbEntity
  8
LAY-7
  6
DASHED2
 62
     3
100
AcDbLine
 10
132.0
 20
226.7
 30
0.0
 11
144.0
 21
226.7
 31
0.0
  0
LINE
  5
608
100
AcDbEntity
  8
LAY-7
  6
DASHED2
 62
     3
100
AcDbLine
 10
144.0
 20
226.300006
 30
0.0
 11
144.0
 21
226.7
 31
0.0
  0
LINE
  5
609
100
AcDbEntity
  8
LAY-7
  6
DASHED2
 62
     3
100
AcDbLine
 10
132.0
 20
226.300006
 30
0.0
 11
132.0
 21
226.7
 31
0.0
  0
LINE
  5
60A
100
AcDbEntity
  8
LAY-7
  6
DASHED2
 62
     3
100
AcDbLine
 10
141.0
 20
230.096273
 30
0.0
 11
144.0
 21
226.7
 31
0.0
  0
LINE
  5
60B
100
AcDbEntity
  8
LAY-7
  6
CONTINUOUS
 62
     3
100
AcDbLine
 10
141.0
 20
242.300037
 30
0.0
 11
135.0
 21
242.300037
 31
0.0
  0
LINE
  5
60C
100
AcDbEntity
  8
LAY-7
  6
DASHED2
 62
     3
100
AcDbLine
 10
135.0
 20
230.096273
 30
0.0
 11
141.0
 21
230.096273
 31
0.0
  0
LINE
  5
60D
100
AcDbEntity
  8
LAY-7
  6
DASHED2
 62
     3
100
AcDbLine
 10
135.000019
 20
230.096256
 30
0.0
 11
132.0
 21
226.7
 31
0.0
  0
LINE
  5
60E
100
AcDbEntity
  8
LAY-7
  6
CONTINUOUS
 62
     3
100
AcDbLine
 10
141.0
 20
241.2
 30
0.0
 11
141.0
 21
242.300037
 31
0.0
  0
LINE
  5
60F
100
AcDbEntity
  8
LAY-7
  6
CONTINUOUS
 62
     1
100
AcDbLine
 10
140.250003
 20
241.2
 30
0.0
 11
140.25
 21
242.300037
 31
0.0
  0
LINE
  5
610
100
AcDbEntity
  8
LAY-7
  6
CONTINUOUS
 62
     3
100
AcDbLine
 10
135.0
 20
241.2
 30
0.0
 11
135.0
 21
242.300037
 31
0.0
  0
LINE
  5
611
100
AcDbEntity
  8
LAY-7
  6
CONTINUOUS
 62
     1
100
AcDbLine
 10
135.749997
 20
241.2
 30
0.0
 11
135.75
 21
242.300037
 31
0.0
  0
LINE
  5
612
100
AcDbEntity
  8
LAY-7
  6
DASHED2
 62
     3
100
AcDbLine
 10
135.0
 20
241.2
 30
0.0
 11
135.0
 21
230.096273
 31
0.0
  0
LINE
  5
613
100
AcDbEntity
  8
LAY-7
  6
DASHED2
 62
     1
100
AcDbLine
 10
135.74997
 20
241.2
 30
0.0
 11
135.74997
 21
230.096273
 31
0.0
  0
LINE
  5
614
100
AcDbEntity
  8
LAY-7
  6
DASHED2
 62
     1
100
AcDbLine
 10
140.25003
 20
241.2
 30
0.0
 11
140.25003
 21
230.096273
 31
0.0
  0
LINE
  5
615
100
AcDbEntity
  8
LAY-7
  6
DASHED2
 62
     3
100
AcDbLine
 10
141.0
 20
241.2
 30
0.0
 11
141.0
 21
230.096273
 31
0.0
  0
LINE
  5
616
100
AcDbEntity
  8
LAY-7
  6
DASHED2
 62
     3
100
AcDbLine
 10
156.0
 20
226.7
 30
0.0
 11
168.0
 21
226.7
 31
0.0
  0
LINE
  5
617
100
AcDbEntity
  8
LAY-7
  6
DASHED2
 62
     3
100
AcDbLine
 10
168.0
 20
226.300006
 30
0.0
 11
168.0
 21
226.7
 31
0.0
  0
LINE
  5
618
100
AcDbEntity
  8
LAY-7
  6
DASHED2
 62
     3
100
AcDbLine
 10
156.0
 20
226.300006
 30
0.0
 11
156.0
 21
226.7
 31
0.0
  0
LINE
  5
619
100
AcDbEntity
  8
LAY-7
  6
DASHED2
 62
     3
100
AcDbLine
 10
165.0
 20
230.096273
 30
0.0
 11
168.0
 21
226.7
 31
0.0
  0
LINE
  5
61A
100
AcDbEntity
  8
LAY-7
  6
CONTINUOUS
 62
     3
100
AcDbLine
 10
165.0
 20
242.300037
 30
0.0
 11
159.0
 21
242.300037
 31
0.0
  0
LINE
  5
61B
100
AcDbEntity
  8
LAY-7
  6
DASHED2
 62
     3
100
AcDbLine
 10
159.0
 20
230.096273
 30
0.0
 11
165.0
 21
230.096273
 31
0.0
  0
LINE
  5
61C
100
AcDbEntity
  8
LAY-7
  6
DASHED2
 62
     3
100
AcDbLine
 10
159.000019
 20
230.096256
 30
0.0
 11
156.0
 21
226.7
 31
0.0
  0
LINE
  5
61D
100
AcDbEntity
  8
LAY-7
  6
CONTINUOUS
 62
     3
100
AcDbLine
 10
165.0
 20
241.2
 30
0.0
 11
165.0
 21
242.300037
 31
0.0
  0
LINE
  5
61E
100
AcDbEntity
  8
LAY-7
  6
CONTINUOUS
 62
     1
100
AcDbLine
 10
164.250003
 20
241.2
 30
0.0
 11
164.25
 21
242.300037
 31
0.0
  0
LINE
  5
61F
100
AcDbEntity
  8
LAY-7
  6
CONTINUOUS
 62
     3
100
AcDbLine
 10
159.0
 20
241.2
 30
0.0
 11
159.0
 21
242.300037
 31
0.0
  0
LINE
  5
620
100
AcDbEntity
  8
LAY-7
  6
CONTINUOUS
 62
     1
100
AcDbLine
 10
159.749997
 20
241.2
 30
0.0
 11
159.75
 21
242.300037
 31
0.0
  0
LINE
  5
621
100
AcDbEntity
  8
LAY-7
  6
DASHED2
 62
     3
100
AcDbLine
 10
159.0
 20
241.2
 30
0.0
 11
159.0
 21
230.096273
 31
0.0
  0
LINE
  5
622
100
AcDbEntity
  8
LAY-7
  6
DASHED2
 62
     1
100
AcDbLine
 10
159.74997
 20
241.2
 30
0.0
 11
159.74997
 21
230.096273
 31
0.0
  0
LINE
  5
623
100
AcDbEntity
  8
LAY-7
  6
DASHED2
 62
     1
100
AcDbLine
 10
164.25003
 20
241.2
 30
0.0
 11
164.25003
 21
230.096273
 31
0.0
  0
LINE
  5
624
100
AcDbEntity
  8
LAY-7
  6
DASHED2
 62
     3
100
AcDbLine
 10
165.0
 20
241.2
 30
0.0
 11
165.0
 21
230.096273
 31
0.0
  0
LINE
  5
625
100
AcDbEntity
  8
LAY-7
  6
DASHED2
 62
     3
100
AcDbLine
 10
180.0
 20
226.7
 30
0.0
 11
192.0
 21
226.7
 31
0.0
  0
LINE
  5
626
100
AcDbEntity
  8
LAY-7
  6
DASHED2
 62
     3
100
AcDbLine
 10
192.0
 20
226.300006
 30
0.0
 11
192.0
 21
226.7
 31
0.0
  0
LINE
  5
627
100
AcDbEntity
  8
LAY-7
  6
DASHED2
 62
     3
100
AcDbLine
 10
180.0
 20
226.300006
 30
0.0
 11
180.0
 21
226.7
 31
0.0
  0
LINE
  5
628
100
AcDbEntity
  8
LAY-7
  6
DASHED2
 62
     3
100
AcDbLine
 10
189.0
 20
230.096273
 30
0.0
 11
192.0
 21
226.7
 31
0.0
  0
LINE
  5
629
100
AcDbEntity
  8
LAY-7
  6
CONTINUOUS
 62
     3
100
AcDbLine
 10
189.0
 20
242.300037
 30
0.0
 11
183.0
 21
242.300037
 31
0.0
  0
LINE
  5
62A
100
AcDbEntity
  8
LAY-7
  6
DASHED2
 62
     3
100
AcDbLine
 10
183.0
 20
230.096273
 30
0.0
 11
189.0
 21
230.096273
 31
0.0
  0
LINE
  5
62B
100
AcDbEntity
  8
LAY-7
  6
DASHED2
 62
     3
100
AcDbLine
 10
183.000019
 20
230.096256
 30
0.0
 11
180.0
 21
226.7
 31
0.0
  0
LINE
  5
62C
100
AcDbEntity
  8
LAY-7
  6
CONTINUOUS
 62
     3
100
AcDbLine
 10
189.0
 20
241.2
 30
0.0
 11
189.0
 21
242.300037
 31
0.0
  0
LINE
  5
62D
100
AcDbEntity
  8
LAY-7
  6
CONTINUOUS
 62
     1
100
AcDbLine
 10
188.250003
 20
241.2
 30
0.0
 11
188.25
 21
242.300037
 31
0.0
  0
LINE
  5
62E
100
AcDbEntity
  8
LAY-7
  6
CONTINUOUS
 62
     3
100
AcDbLine
 10
183.0
 20
241.2
 30
0.0
 11
183.0
 21
242.300037
 31
0.0
  0
LINE
  5
62F
100
AcDbEntity
  8
LAY-7
  6
CONTINUOUS
 62
     1
100
AcDbLine
 10
183.749997
 20
241.2
 30
0.0
 11
183.75
 21
242.300037
 31
0.0
  0
LINE
  5
630
100
AcDbEntity
  8
LAY-7
  6
DASHED2
 62
     3
100
AcDbLine
 10
183.0
 20
241.2
 30
0.0
 11
183.0
 21
230.096273
 31
0.0
  0
LINE
  5
631
100
AcDbEntity
  8
LAY-7
  6
DASHED2
 62
     1
100
AcDbLine
 10
183.74997
 20
241.2
 30
0.0
 11
183.74997
 21
230.096273
 31
0.0
  0
LINE
  5
632
100
AcDbEntity
  8
LAY-7
  6
DASHED2
 62
     1
100
AcDbLine
 10
188.25003
 20
241.2
 30
0.0
 11
188.25003
 21
230.096273
 31
0.0
  0
LINE
  5
633
100
AcDbEntity
  8
LAY-7
  6
DASHED2
 62
     3
100
AcDbLine
 10
189.0
 20
241.2
 30
0.0
 11
189.0
 21
230.096273
 31
0.0
  0
LINE
  5
634
100
AcDbEntity
  8
LAY-7
  6
DASHED2
 62
     3
100
AcDbLine
 10
204.0
 20
226.7
 30
0.0
 11
216.0
 21
226.7
 31
0.0
  0
LINE
  5
635
100
AcDbEntity
  8
LAY-7
  6
DASHED2
 62
     3
100
AcDbLine
 10
216.0
 20
226.300006
 30
0.0
 11
216.0
 21
226.7
 31
0.0
  0
LINE
  5
636
100
AcDbEntity
  8
LAY-7
  6
DASHED2
 62
     3
100
AcDbLine
 10
204.0
 20
226.300006
 30
0.0
 11
204.0
 21
226.7
 31
0.0
  0
LINE
  5
637
100
AcDbEntity
  8
LAY-7
  6
DASHED2
 62
     3
100
AcDbLine
 10
213.0
 20
230.096273
 30
0.0
 11
216.0
 21
226.7
 31
0.0
  0
LINE
  5
638
100
AcDbEntity
  8
LAY-7
  6
CONTINUOUS
 62
     3
100
AcDbLine
 10
213.0
 20
242.300037
 30
0.0
 11
207.0
 21
242.300037
 31
0.0
  0
LINE
  5
639
100
AcDbEntity
  8
LAY-7
  6
DASHED2
 62
     3
100
AcDbLine
 10
207.0
 20
230.096273
 30
0.0
 11
213.0
 21
230.096273
 31
0.0
  0
LINE
  5
63A
100
AcDbEntity
  8
LAY-7
  6
DASHED2
 62
     3
100
AcDbLine
 10
207.000019
 20
230.096256
 30
0.0
 11
204.0
 21
226.7
 31
0.0
  0
LINE
  5
63B
100
AcDbEntity
  8
LAY-7
  6
CONTINUOUS
 62
     3
100
AcDbLine
 10
213.0
 20
241.2
 30
0.0
 11
213.0
 21
242.300037
 31
0.0
  0
LINE
  5
63C
100
AcDbEntity
  8
LAY-7
  6
CONTINUOUS
 62
     1
100
AcDbLine
 10
212.250003
 20
241.2
 30
0.0
 11
212.25
 21
242.300037
 31
0.0
  0
LINE
  5
63D
100
AcDbEntity
  8
LAY-7
  6
CONTINUOUS
 62
     3
100
AcDbLine
 10
207.0
 20
241.2
 30
0.0
 11
207.0
 21
242.300037
 31
0.0
  0
LINE
  5
63E
100
AcDbEntity
  8
LAY-7
  6
CONTINUOUS
 62
     1
100
AcDbLine
 10
207.749997
 20
241.2
 30
0.0
 11
207.75
 21
242.300037
 31
0.0
  0
LINE
  5
63F
100
AcDbEntity
  8
LAY-7
  6
DASHED2
 62
     3
100
AcDbLine
 10
207.0
 20
241.2
 30
0.0
 11
207.0
 21
230.096273
 31
0.0
  0
LINE
  5
640
100
AcDbEntity
  8
LAY-7
  6
DASHED2
 62
     1
100
AcDbLine
 10
207.74997
 20
241.2
 30
0.0
 11
207.74997
 21
230.096273
 31
0.0
  0
LINE
  5
641
100
AcDbEntity
  8
LAY-7
  6
DASHED2
 62
     1
100
AcDbLine
 10
212.25003
 20
241.2
 30
0.0
 11
212.25003
 21
230.096273
 31
0.0
  0
LINE
  5
642
100
AcDbEntity
  8
LAY-7
  6
DASHED2
 62
     3
100
AcDbLine
 10
213.0
 20
241.2
 30
0.0
 11
213.0
 21
230.096273
 31
0.0
  0
LINE
  5
643
100
AcDbEntity
  8
LAY-7
  6
DASHED2
 62
     3
100
AcDbLine
 10
129.0
 20
495.0
 30
0.0
 11
140.999985
 21
495.0
 31
0.0
  0
LINE
  5
644
100
AcDbEntity
  8
LAY-7
  6
DASHED2
 62
     3
100
AcDbLine
 10
140.999985
 20
495.400024
 30
0.0
 11
129.0
 21
495.400024
 31
0.0
  0
LINE
  5
645
100
AcDbEntity
  8
LAY-7
  6
DASHED2
 62
     3
100
AcDbLine
 10
138.349991
 20
498.400024
 30
0.0
 11
131.649964
 21
498.400024
 31
0.0
  0
LINE
  5
646
100
AcDbEntity
  8
LAY-7
  6
DASHED2
 62
     3
100
AcDbLine
 10
131.649964
 20
498.400024
 30
0.0
 11
129.0
 21
495.400024
 31
0.0
  0
LINE
  5
647
100
AcDbEntity
  8
LAY-7
  6
DASHED2
 62
     3
100
AcDbLine
 10
138.349991
 20
498.400024
 30
0.0
 11
140.999985
 21
495.400024
 31
0.0
  0
LINE
  5
648
100
AcDbEntity
  8
LAY-7
  6
DASHED2
 62
     3
100
AcDbLine
 10
129.0
 20
495.400024
 30
0.0
 11
129.0
 21
495.0
 31
0.0
  0
LINE
  5
649
100
AcDbEntity
  8
LAY-7
  6
DASHED2
 62
     3
100
AcDbLine
 10
140.999985
 20
495.400024
 30
0.0
 11
140.999985
 21
495.0
 31
0.0
  0
LINE
  5
64A
100
AcDbEntity
  8
LAY-7
  6
DASHED2
 62
     3
100
AcDbLine
 10
131.649964
 20
511.0
 30
0.0
 11
138.349991
 21
511.0
 31
0.0
  0
LINE
  5
64B
100
AcDbEntity
  8
LAY-7
  6
DASHED2
 62
     3
100
AcDbLine
 10
131.649979
 20
505.5
 30
0.0
 11
131.649964
 21
511.0
 31
0.0
  0
LINE
  5
64C
100
AcDbEntity
  8
LAY-7
  6
DASHED2
 62
     3
100
AcDbLine
 10
138.349991
 20
505.5
 30
0.0
 11
138.349991
 21
511.0
 31
0.0
  0
LINE
  5
64D
100
AcDbEntity
  8
LAY-7
  6
DASHED2
 62
     1
100
AcDbLine
 10
132.399979
 20
505.5
 30
0.0
 11
132.399964
 21
511.0
 31
0.0
  0
LINE
  5
64E
100
AcDbEntity
  8
LAY-7
  6
DASHED2
 62
     1
100
AcDbLine
 10
137.599976
 20
505.5
 30
0.0
 11
137.599991
 21
511.0
 31
0.0
  0
LINE
  5
64F
100
AcDbEntity
  8
LAY-7
  6
DASHED2
 62
     3
100
AcDbLine
 10
131.649994
 20
505.5
 30
0.0
 11
131.649964
 21
498.400024
 31
0.0
  0
LINE
  5
650
100
AcDbEntity
  8
LAY-7
  6
DASHED2
 62
     3
100
AcDbLine
 10
138.349991
 20
505.5
 30
0.0
 11
138.349991
 21
498.400024
 31
0.0
  0
LINE
  5
651
100
AcDbEntity
  8
LAY-7
  6
DASHED2
 62
     1
100
AcDbLine
 10
132.399994
 20
505.5
 30
0.0
 11
132.399964
 21
498.400024
 31
0.0
  0
LINE
  5
652
100
AcDbEntity
  8
LAY-7
  6
DASHED2
 62
     1
100
AcDbLine
 10
137.599991
 20
505.5
 30
0.0
 11
137.599961
 21
498.400024
 31
0.0
  0
LINE
  5
653
100
AcDbEntity
  8
LAY-7
  6
DASHED2
 62
     3
100
AcDbLine
 10
140.0
 20
491.700012
 30
0.0
 11
130.0
 21
491.700012
 31
0.0
  0
LINE
  5
654
100
AcDbEntity
  8
LAY-7
  6
DASHED2
 62
     3
100
AcDbLine
 10
130.0
 20
492.0
 30
0.0
 11
130.0
 21
491.700012
 31
0.0
  0
LINE
  5
655
100
AcDbEntity
  8
LAY-7
  6
DASHED2
 62
     3
100
AcDbLine
 10
140.0
 20
492.0
 30
0.0
 11
140.0
 21
491.700012
 31
0.0
  0
LINE
  5
656
100
AcDbEntity
  8
LAY-7
  6
DASHED2
 62
     3
100
AcDbLine
 10
132.5
 20
489.199981
 30
0.0
 11
137.5
 21
489.199981
 31
0.0
  0
LINE
  5
657
100
AcDbEntity
  8
LAY-7
  6
DASHED2
 62
     3
100
AcDbLine
 10
130.0
 20
491.700012
 30
0.0
 11
132.5
 21
489.200012
 31
0.0
  0
LINE
  5
658
100
AcDbEntity
  8
LAY-7
  6
DASHED2
 62
     3
100
AcDbLine
 10
137.5
 20
489.200012
 30
0.0
 11
140.0
 21
491.700012
 31
0.0
  0
LINE
  5
659
100
AcDbEntity
  8
LAY-7
  6
CONTINUOUS
 62
     3
100
AcDbLine
 10
137.5
 20
476.0
 30
0.0
 11
132.5
 21
476.0
 31
0.0
  0
LINE
  5
65A
100
AcDbEntity
  8
LAY-7
  6
DASHED2
 62
     3
100
AcDbLine
 10
132.5
 20
479.866667
 30
0.0
 11
132.5
 21
489.200012
 31
0.0
  0
LINE
  5
65B
100
AcDbEntity
  8
LAY-7
  6
CONTINUOUS
 62
     3
100
AcDbLine
 10
132.5
 20
479.8
 30
0.0
 11
132.5
 21
476.0
 31
0.0
  0
LINE
  5
65C
100
AcDbEntity
  8
LAY-7
  6
DASHED2
 62
     3
100
AcDbLine
 10
137.5
 20
479.8
 30
0.0
 11
137.5
 21
489.200012
 31
0.0
  0
LINE
  5
65D
100
AcDbEntity
  8
LAY-7
  6
CONTINUOUS
 62
     3
100
AcDbLine
 10
137.5
 20
479.8
 30
0.0
 11
137.5
 21
476.0
 31
0.0
  0
LINE
  5
65E
100
AcDbEntity
  8
LAY-7
  6
DASHED2
 62
     1
100
AcDbLine
 10
137.0
 20
479.8
 30
0.0
 11
137.0
 21
489.200012
 31
0.0
  0
LINE
  5
65F
100
AcDbEntity
  8
LAY-7
  6
CONTINUOUS
 62
     1
100
AcDbLine
 10
137.0
 20
479.8
 30
0.0
 11
137.0
 21
476.0
 31
0.0
  0
LINE
  5
660
100
AcDbEntity
  8
LAY-7
  6
DASHED2
 62
     1
100
AcDbLine
 10
133.0
 20
479.88
 30
0.0
 11
133.0
 21
489.200012
 31
0.0
  0
LINE
  5
661
100
AcDbEntity
  8
LAY-7
  6
CONTINUOUS
 62
     1
100
AcDbLine
 10
133.0
 20
479.8
 30
0.0
 11
133.0
 21
476.0
 31
0.0
  0
LINE
  5
662
100
AcDbEntity
  8
LAY-7
  6
DASHED2
 62
     3
100
AcDbLine
 10
149.0
 20
495.0
 30
0.0
 11
160.999985
 21
495.0
 31
0.0
  0
LINE
  5
663
100
AcDbEntity
  8
LAY-7
  6
DASHED2
 62
     3
100
AcDbLine
 10
160.999985
 20
495.400024
 30
0.0
 11
149.0
 21
495.400024
 31
0.0
  0
LINE
  5
664
100
AcDbEntity
  8
LAY-7
  6
DASHED2
 62
     3
100
AcDbLine
 10
158.349991
 20
498.400024
 30
0.0
 11
151.649964
 21
498.400024
 31
0.0
  0
LINE
  5
665
100
AcDbEntity
  8
LAY-7
  6
DASHED2
 62
     3
100
AcDbLine
 10
151.649964
 20
498.400024
 30
0.0
 11
149.0
 21
495.400024
 31
0.0
  0
LINE
  5
666
100
AcDbEntity
  8
LAY-7
  6
DASHED2
 62
     3
100
AcDbLine
 10
158.349991
 20
498.400024
 30
0.0
 11
160.999985
 21
495.400024
 31
0.0
  0
LINE
  5
667
100
AcDbEntity
  8
LAY-7
  6
DASHED2
 62
     3
100
AcDbLine
 10
149.0
 20
495.400024
 30
0.0
 11
149.0
 21
495.0
 31
0.0
  0
LINE
  5
668
100
AcDbEntity
  8
LAY-7
  6
DASHED2
 62
     3
100
AcDbLine
 10
160.999985
 20
495.400024
 30
0.0
 11
160.999985
 21
495.0
 31
0.0
  0
LINE
  5
669
100
AcDbEntity
  8
LAY-7
  6
CONTINUOUS
 62
     3
100
AcDbLine
 10
151.649964
 20
511.0
 30
0.0
 11
158.349991
 21
511.0
 31
0.0
  0
LINE
  5
66A
100
AcDbEntity
  8
LAY-7
  6
CONTINUOUS
 62
     3
100
AcDbLine
 10
151.649979
 20
505.5
 30
0.0
 11
151.649964
 21
511.0
 31
0.0
  0
LINE
  5
66B
100
AcDbEntity
  8
LAY-7
  6
CONTINUOUS
 62
     3
100
AcDbLine
 10
158.349991
 20
505.5
 30
0.0
 11
158.349991
 21
511.0
 31
0.0
  0
LINE
  5
66C
100
AcDbEntity
  8
LAY-7
  6
CONTINUOUS
 62
     1
100
AcDbLine
 10
152.399979
 20
505.5
 30
0.0
 11
152.399964
 21
511.0
 31
0.0
  0
LINE
  5
66D
100
AcDbEntity
  8
LAY-7
  6
CONTINUOUS
 62
     1
100
AcDbLine
 10
157.599976
 20
505.5
 30
0.0
 11
157.599991
 21
511.0
 31
0.0
  0
LINE
  5
66E
100
AcDbEntity
  8
LAY-7
  6
DASHED2
 62
     3
100
AcDbLine
 10
151.649979
 20
505.5
 30
0.0
 11
151.649964
 21
498.400024
 31
0.0
  0
LINE
  5
66F
100
AcDbEntity
  8
LAY-7
  6
DASHED2
 62
     3
100
AcDbLine
 10
158.349991
 20
505.5
 30
0.0
 11
158.349991
 21
498.400024
 31
0.0
  0
LINE
  5
670
100
AcDbEntity
  8
LAY-7
  6
DASHED2
 62
     1
100
AcDbLine
 10
152.399979
 20
505.5
 30
0.0
 11
152.399964
 21
498.400024
 31
0.0
  0
LINE
  5
671
100
AcDbEntity
  8
LAY-7
  6
DASHED2
 62
     1
100
AcDbLine
 10
157.599976
 20
505.5
 30
0.0
 11
157.599961
 21
498.400024
 31
0.0
  0
LINE
  5
672
100
AcDbEntity
  8
LAY-7
  6
DASHED2
 62
     3
100
AcDbLine
 10
175.0
 20
491.700012
 30
0.0
 11
165.0
 21
491.700012
 31
0.0
  0
LINE
  5
673
100
AcDbEntity
  8
LAY-7
  6
DASHED2
 62
     3
100
AcDbLine
 10
165.0
 20
492.0
 30
0.0
 11
165.0
 21
491.700012
 31
0.0
  0
LINE
  5
674
100
AcDbEntity
  8
LAY-7
  6
DASHED2
 62
     3
100
AcDbLine
 10
175.0
 20
492.0
 30
0.0
 11
175.0
 21
491.700012
 31
0.0
  0
LINE
  5
675
100
AcDbEntity
  8
LAY-7
  6
DASHED2
 62
     3
100
AcDbLine
 10
167.5
 20
489.199981
 30
0.0
 11
172.5
 21
489.199981
 31
0.0
  0
LINE
  5
676
100
AcDbEntity
  8
LAY-7
  6
DASHED2
 62
     3
100
AcDbLine
 10
165.0
 20
491.700012
 30
0.0
 11
167.5
 21
489.200012
 31
0.0
  0
LINE
  5
677
100
AcDbEntity
  8
LAY-7
  6
DASHED2
 62
     3
100
AcDbLine
 10
172.5
 20
489.200012
 30
0.0
 11
175.0
 21
491.700012
 31
0.0
  0
LINE
  5
678
100
AcDbEntity
  8
LAY-7
  6
CONTINUOUS
 62
     3
100
AcDbLine
 10
172.5
 20
476.0
 30
0.0
 11
167.5
 21
476.0
 31
0.0
  0
LINE
  5
679
100
AcDbEntity
  8
LAY-7
  6
DASHED2
 62
     3
100
AcDbLine
 10
167.5
 20
479.8
 30
0.0
 11
167.5
 21
489.200012
 31
0.0
  0
LINE
  5
67A
100
AcDbEntity
  8
LAY-7
  6
CONTINUOUS
 62
     3
100
AcDbLine
 10
167.5
 20
479.8
 30
0.0
 11
167.5
 21
476.0
 31
0.0
  0
LINE
  5
67B
100
AcDbEntity
  8
LAY-7
  6
DASHED2
 62
     3
100
AcDbLine
 10
172.5
 20
479.8
 30
0.0
 11
172.5
 21
489.200012
 31
0.0
  0
LINE
  5
67C
100
AcDbEntity
  8
LAY-7
  6
CONTINUOUS
 62
     3
100
AcDbLine
 10
172.5
 20
479.8
 30
0.0
 11
172.5
 21
476.0
 31
0.0
  0
LINE
  5
67D
100
AcDbEntity
  8
LAY-7
  6
DASHED2
 62
     1
100
AcDbLine
 10
172.0
 20
479.8
 30
0.0
 11
172.0
 21
489.200012
 31
0.0
  0
LINE
  5
67E
100
AcDbEntity
  8
LAY-7
  6
CONTINUOUS
 62
     1
100
AcDbLine
 10
172.0
 20
479.8
 30
0.0
 11
172.0
 21
476.0
 31
0.0
  0
LINE
  5
67F
100
AcDbEntity
  8
LAY-7
  6
DASHED2
 62
     1
100
AcDbLine
 10
168.0
 20
479.8
 30
0.0
 11
168.0
 21
489.200012
 31
0.0
  0
LINE
  5
680
100
AcDbEntity
  8
LAY-7
  6
CONTINUOUS
 62
     1
100
AcDbLine
 10
168.0
 20
479.8
 30
0.0
 11
168.0
 21
476.0
 31
0.0
  0
LINE
  5
681
100
AcDbEntity
  8
LAY-7
  6
DASHED2
 62
     3
100
AcDbLine
 10
210.0
 20
491.700012
 30
0.0
 11
200.0
 21
491.700012
 31
0.0
  0
LINE
  5
682
100
AcDbEntity
  8
LAY-7
  6
DASHED2
 62
     3
100
AcDbLine
 10
200.0
 20
492.0
 30
0.0
 11
200.0
 21
491.700012
 31
0.0
  0
LINE
  5
683
100
AcDbEntity
  8
LAY-7
  6
DASHED2
 62
     3
100
AcDbLine
 10
210.0
 20
492.0
 30
0.0
 11
210.0
 21
491.700012
 31
0.0
  0
LINE
  5
684
100
AcDbEntity
  8
LAY-7
  6
DASHED2
 62
     3
100
AcDbLine
 10
202.5
 20
489.199981
 30
0.0
 11
207.5
 21
489.199981
 31
0.0
  0
LINE
  5
685
100
AcDbEntity
  8
LAY-7
  6
DASHED2
 62
     3
100
AcDbLine
 10
200.0
 20
491.700012
 30
0.0
 11
202.5
 21
489.200012
 31
0.0
  0
LINE
  5
686
100
AcDbEntity
  8
LAY-7
  6
DASHED2
 62
     3
100
AcDbLine
 10
207.5
 20
489.200012
 30
0.0
 11
210.0
 21
491.700012
 31
0.0
  0
LINE
  5
687
100
AcDbEntity
  8
LAY-7
  6
CONTINUOUS
 62
     3
100
AcDbLine
 10
207.5
 20
476.0
 30
0.0
 11
202.5
 21
476.0
 31
0.0
  0
LINE
  5
688
100
AcDbEntity
  8
LAY-7
  6
DASHED2
 62
     3
100
AcDbLine
 10
202.5
 20
479.8
 30
0.0
 11
202.5
 21
489.200012
 31
0.0
  0
LINE
  5
689
100
AcDbEntity
  8
LAY-7
  6
CONTINUOUS
 62
     3
100
AcDbLine
 10
202.5
 20
479.8
 30
0.0
 11
202.5
 21
476.0
 31
0.0
  0
LINE
  5
68A
100
AcDbEntity
  8
LAY-7
  6
DASHED2
 62
     3
100
AcDbLine
 10
207.5
 20
479.8
 30
0.0
 11
207.5
 21
489.200012
 31
0.0
  0
LINE
  5
68B
100
AcDbEntity
  8
LAY-7
  6
CONTINUOUS
 62
     3
100
AcDbLine
 10
207.5
 20
479.8
 30
0.0
 11
207.5
 21
476.0
 31
0.0
  0
LINE
  5
68C
100
AcDbEntity
  8
LAY-7
  6
DASHED2
 62
     1
100
AcDbLine
 10
207.0
 20
479.8
 30
0.0
 11
207.0
 21
489.200012
 31
0.0
  0
LINE
  5
68D
100
AcDbEntity
  8
LAY-7
  6
CONTINUOUS
 62
     1
100
AcDbLine
 10
207.0
 20
479.8
 30
0.0
 11
207.0
 21
476.0
 31
0.0
  0
LINE
  5
68E
100
AcDbEntity
  8
LAY-7
  6
DASHED2
 62
     1
100
AcDbLine
 10
203.0
 20
479.8
 30
0.0
 11
203.0
 21
489.200012
 31
0.0
  0
LINE
  5
68F
100
AcDbEntity
  8
LAY-7
  6
CONTINUOUS
 62
     1
100
AcDbLine
 10
203.0
 20
479.8
 30
0.0
 11
203.0
 21
476.0
 31
0.0
  0
LINE
  5
690
100
AcDbEntity
  8
LAY-7
  6
DASHED2
 62
     3
100
AcDbLine
 10
225.999955
 20
495.399963
 30
0.0
 11
237.999955
 21
495.399963
 31
0.0
  0
LINE
  5
691
100
AcDbEntity
  8
LAY-7
  6
DASHED2
 62
     3
100
AcDbLine
 10
228.649949
 20
498.399963
 30
0.0
 11
235.349991
 21
498.399963
 31
0.0
  0
LINE
  5
692
100
AcDbEntity
  8
LAY-7
  6
DASHED2
 62
     3
100
AcDbLine
 10
235.349991
 20
498.399963
 30
0.0
 11
237.999955
 21
495.399963
 31
0.0
  0
LINE
  5
693
100
AcDbEntity
  8
LAY-7
  6
DASHED2
 62
     3
100
AcDbLine
 10
228.649949
 20
498.399963
 30
0.0
 11
225.999955
 21
495.399963
 31
0.0
  0
LINE
  5
694
100
AcDbEntity
  8
LAY-7
  6
DASHED2
 62
     3
100
AcDbLine
 10
237.999955
 20
494.999969
 30
0.0
 11
237.999955
 21
495.399963
 31
0.0
  0
LINE
  5
695
100
AcDbEntity
  8
LAY-7
  6
DASHED2
 62
     3
100
AcDbLine
 10
225.999955
 20
494.999969
 30
0.0
 11
225.999955
 21
495.399963
 31
0.0
  0
LINE
  5
696
100
AcDbEntity
  8
LAY-7
  6
CONTINUOUS
 62
     3
100
AcDbLine
 10
235.349961
 20
511.0
 30
0.0
 11
228.649949
 21
511.0
 31
0.0
  0
LINE
  5
697
100
AcDbEntity
  8
LAY-7
  6
CONTINUOUS
 62
     3
100
AcDbLine
 10
235.349961
 20
505.5
 30
0.0
 11
235.349961
 21
511.0
 31
0.0
  0
LINE
  5
698
100
AcDbEntity
  8
LAY-7
  6
CONTINUOUS
 62
     3
100
AcDbLine
 10
228.649949
 20
505.5
 30
0.0
 11
228.649949
 21
511.0
 31
0.0
  0
LINE
  5
699
100
AcDbEntity
  8
LAY-7
  6
CONTINUOUS
 62
     1
100
AcDbLine
 10
234.599976
 20
505.5
 30
0.0
 11
234.599961
 21
511.0
 31
0.0
  0
LINE
  5
69A
100
AcDbEntity
  8
LAY-7
  6
CONTINUOUS
 62
     1
100
AcDbLine
 10
229.399964
 20
505.5
 30
0.0
 11
229.399949
 21
511.0
 31
0.0
  0
LINE
  5
69B
100
AcDbEntity
  8
LAY-7
  6
DASHED2
 62
     3
100
AcDbLine
 10
235.349961
 20
505.5
 30
0.0
 11
235.349961
 21
498.399963
 31
0.0
  0
LINE
  5
69C
100
AcDbEntity
  8
LAY-7
  6
DASHED2
 62
     3
100
AcDbLine
 10
228.649949
 20
505.5
 30
0.0
 11
228.649949
 21
498.399963
 31
0.0
  0
LINE
  5
69D
100
AcDbEntity
  8
LAY-7
  6
DASHED2
 62
     1
100
AcDbLine
 10
234.599991
 20
505.5
 30
0.0
 11
234.599991
 21
498.399963
 31
0.0
  0
LINE
  5
69E
100
AcDbEntity
  8
LAY-7
  6
DASHED2
 62
     1
100
AcDbLine
 10
229.399979
 20
505.5
 30
0.0
 11
229.399979
 21
498.399963
 31
0.0
  0
LINE
  5
69F
100
AcDbEntity
  8
LAY-7
  6
DASHED2
 62
     3
100
AcDbLine
 10
245.0
 20
491.700012
 30
0.0
 11
235.0
 21
491.700012
 31
0.0
  0
LINE
  5
6A0
100
AcDbEntity
  8
LAY-7
  6
DASHED2
 62
     3
100
AcDbLine
 10
235.0
 20
492.0
 30
0.0
 11
235.0
 21
491.700012
 31
0.0
  0
LINE
  5
6A1
100
AcDbEntity
  8
LAY-7
  6
DASHED2
 62
     3
100
AcDbLine
 10
245.0
 20
492.0
 30
0.0
 11
245.0
 21
491.700012
 31
0.0
  0
LINE
  5
6A2
100
AcDbEntity
  8
LAY-7
  6
DASHED2
 62
     3
100
AcDbLine
 10
237.5
 20
489.199981
 30
0.0
 11
242.5
 21
489.199981
 31
0.0
  0
LINE
  5
6A3
100
AcDbEntity
  8
LAY-7
  6
DASHED2
 62
     3
100
AcDbLine
 10
235.0
 20
491.700012
 30
0.0
 11
237.5
 21
489.200012
 31
0.0
  0
LINE
  5
6A4
100
AcDbEntity
  8
LAY-7
  6
DASHED2
 62
     3
100
AcDbLine
 10
242.5
 20
489.200012
 30
0.0
 11
245.0
 21
491.700012
 31
0.0
  0
LINE
  5
6A5
100
AcDbEntity
  8
LAY-7
  6
CONTINUOUS
 62
     3
100
AcDbLine
 10
242.5
 20
476.0
 30
0.0
 11
237.5
 21
476.0
 31
0.0
  0
LINE
  5
6A6
100
AcDbEntity
  8
LAY-7
  6
DASHED2
 62
     3
100
AcDbLine
 10
237.5
 20
479.8
 30
0.0
 11
237.5
 21
489.200012
 31
0.0
  0
LINE
  5
6A7
100
AcDbEntity
  8
LAY-7
  6
CONTINUOUS
 62
     3
100
AcDbLine
 10
237.5
 20
479.8
 30
0.0
 11
237.5
 21
476.0
 31
0.0
  0
LINE
  5
6A8
100
AcDbEntity
  8
LAY-7
  6
DASHED2
 62
     1
100
AcDbLine
 10
238.0
 20
479.8
 30
0.0
 11
238.0
 21
489.200012
 31
0.0
  0
LINE
  5
6A9
100
AcDbEntity
  8
LAY-7
  6
CONTINUOUS
 62
     1
100
AcDbLine
 10
238.0
 20
479.8
 30
0.0
 11
238.0
 21
476.00003
 31
0.0
  0
LINE
  5
6AA
100
AcDbEntity
  8
LAY-7
  6
DASHED2
 62
     1
100
AcDbLine
 10
242.0
 20
479.8
 30
0.0
 11
242.0
 21
489.200012
 31
0.0
  0
LINE
  5
6AB
100
AcDbEntity
  8
LAY-7
  6
CONTINUOUS
 62
     1
100
AcDbLine
 10
242.0
 20
479.8
 30
0.0
 11
242.0
 21
476.00003
 31
0.0
  0
LINE
  5
6AC
100
AcDbEntity
  8
LAY-7
  6
DASHED2
 62
     3
100
AcDbLine
 10
242.5
 20
479.8
 30
0.0
 11
242.5
 21
489.200012
 31
0.0
  0
LINE
  5
6AD
100
AcDbEntity
  8
LAY-7
  6
CONTINUOUS
 62
     3
100
AcDbLine
 10
242.5
 20
479.8
 30
0.0
 11
242.5
 21
476.0
 31
0.0
  0
LINE
  5
6AE
100
AcDbEntity
  8
LAY-8
  6
CONTINUOUS
 62
     2
100
AcDbLine
 10
394.714214
 20
194.3
 30
0.0
 11
452.485786
 21
194.3
 31
0.0
  0
ARC
  5
6AF
100
AcDbEntity
  8
LAY-8
  6
CONTINUOUS
 62
     2
100
AcDbCircle
 10
394.714214
 20
188.3
 30
0.0
 40
1.0
100
AcDbArc
 50
90.0
 51
135.0
  0
ARC
  5
6B0
100
AcDbEntity
  8
LAY-8
  6
CONTINUOUS
 62
     2
100
AcDbCircle
 10
394.714214
 20
188.3
 30
0.0
 40
6.0
100
AcDbArc
 50
90.0
 51
135.0
  0
LINE
  5
6B1
100
AcDbEntity
  8
LAY-8
  6
CONTINUOUS
 62
     2
100
AcDbLine
 10
373.08
 20
180.0
 30
0.0
 11
373.08
 21
185.0
 31
0.0
  0
LINE
  5
6B2
100
AcDbEntity
  8
LAY-8
  6
CONTINUOUS
 62
     2
100
AcDbLine
 10
382.514719
 20
185.0
 30
0.0
 11
373.08
 21
185.0
 31
0.0
  0
ARC
  5
6B3
100
AcDbEntity
  8
LAY-8
  6
CONTINUOUS
 62
     2
100
AcDbCircle
 10
382.514719
 20
186.0
 30
0.0
 40
1.0
100
AcDbArc
 50
270.0
 51
315.0
  0
ARC
  5
6B4
100
AcDbEntity
  8
LAY-8
  6
CONTINUOUS
 62
     2
100
AcDbCircle
 10
382.514719
 20
186.0
 30
0.0
 40
6.0
100
AcDbArc
 50
270.0
 51
315.0
  0
LINE
  5
6B5
100
AcDbEntity
  8
LAY-8
  6
CONTINUOUS
 62
     2
100
AcDbLine
 10
382.514719
 20
180.0
 30
0.0
 11
373.08
 21
180.0
 31
0.0
  0
LINE
  5
6B6
100
AcDbEntity
  8
LAY-8
  6
CONTINUOUS
 62
     2
100
AcDbLine
 10
386.757359
 20
181.757359
 30
0.0
 11
394.007107
 21
189.007107
 31
0.0
  0
LINE
  5
6B7
100
AcDbEntity
  8
LAY-8
  6
CONTINUOUS
 62
     2
100
AcDbLine
 10
383.221825
 20
185.292893
 30
0.0
 11
390.471573
 21
192.542641
 31
0.0
  0
LINE
  5
6B8
100
AcDbEntity
  8
LAY-8
  6
CONTINUOUS
 62
     2
100
AcDbLine
 10
452.485786
 20
189.3
 30
0.0
 11
394.714214
 21
189.3
 31
0.0
  0
ARC
  5
6B9
100
AcDbEntity
  8
LAY-8
  6
CONTINUOUS
 62
     2
100
AcDbCircle
 10
452.485786
 20
188.3
 30
0.0
 40
1.0
100
AcDbArc
 50
45.0
 51
90.0
  0
ARC
  5
6BA
100
AcDbEntity
  8
LAY-8
  6
CONTINUOUS
 62
     2
100
AcDbCircle
 10
452.485786
 20
188.3
 30
0.0
 40
6.0
100
AcDbArc
 50
45.0
 51
90.0
  0
LINE
  5
6BB
100
AcDbEntity
  8
LAY-8
  6
CONTINUOUS
 62
     2
100
AcDbLine
 10
474.12
 20
180.0
 30
0.0
 11
474.12
 21
185.0
 31
0.0
  0
LINE
  5
6BC
100
AcDbEntity
  8
LAY-8
  6
CONTINUOUS
 62
     2
100
AcDbLine
 10
464.685281
 20
185.0
 30
0.0
 11
474.12
 21
185.0
 31
0.0
  0
ARC
  5
6BD
100
AcDbEntity
  8
LAY-8
  6
CONTINUOUS
 62
     2
100
AcDbCircle
 10
464.685281
 20
186.0
 30
0.0
 40
1.0
100
AcDbArc
 50
225.0
 51
270.0
  0
ARC
  5
6BE
100
AcDbEntity
  8
LAY-8
  6
CONTINUOUS
 62
     2
100
AcDbCircle
 10
464.685281
 20
186.0
 30
0.0
 40
6.0
100
AcDbArc
 50
225.0
 51
270.0
  0
LINE
  5
6BF
100
AcDbEntity
  8
LAY-8
  6
CONTINUOUS
 62
     2
100
AcDbLine
 10
464.685281
 20
180.0
 30
0.0
 11
474.12
 21
180.0
 31
0.0
  0
LINE
  5
6C0
100
AcDbEntity
  8
LAY-8
  6
CONTINUOUS
 62
     2
100
AcDbLine
 10
460.442641
 20
181.757359
 30
0.0
 11
453.192893
 21
189.007107
 31
0.0
  0
LINE
  5
6C1
100
AcDbEntity
  8
LAY-8
  6
CONTINUOUS
 62
     2
100
AcDbLine
 10
463.978175
 20
185.292893
 30
0.0
 11
456.728427
 21
192.542641
 31
0.0
  0
LINE
  5
6C2
100
AcDbEntity
  8
LAY-8
  6
CONTINUOUS
 62
     2
100
AcDbLine
 10
86.239
 20
193.056647
 30
0.0
 11
79.884309
 21
182.05
 31
0.0
  0
ARC
  5
6C3
100
AcDbEntity
  8
LAY-8
  6
CONTINUOUS
 62
     2
100
AcDbCircle
 10
88.400226
 20
191.8
 30
0.0
 40
2.5
100
AcDbArc
 50
330.0
 51
150.0
  0
LINE
  5
6C4
100
AcDbEntity
  8
LAY-8
  6
CONTINUOUS
 62
     2
100
AcDbLine
 10
90.565289
 20
190.55
 30
0.0
 11
84.214436
 21
179.55
 31
0.0
  0
ARC
  5
6C5
100
AcDbEntity
  8
LAY-8
  6
CONTINUOUS
 62
     2
100
AcDbCircle
 10
82.049373
 20
180.8
 30
0.0
 40
2.5
100
AcDbArc
 50
150.0
 51
330.0
  0
CIRCLE
  5
6C6
100
AcDbEntity
  8
LAY-8
  6
CONTINUOUS
 62
     2
100
AcDbCircle
 10
87.822875
 20
180.8
 30
0.0
 40
2.5
  0
ARC
  5
6C7
100
AcDbEntity
  8
LAY-8
  6
CONTINUOUS
 62
     2
100
AcDbCircle
 10
131.599774
 20
191.8
 30
0.0
 40
2.5
100
AcDbArc
 50
30.0
 51
210.0
  0
LINE
  5
6C8
100
AcDbEntity
  8
LAY-8
  6
CONTINUOUS
 62
     2
100
AcDbLine
 10
133.761
 20
193.056647
 30
0.0
 11
140.115691
 21
182.05
 31
0.0
  0
LINE
  5
6C9
100
AcDbEntity
  8
LAY-8
  6
CONTINUOUS
 62
     2
100
AcDbLine
 10
129.434711
 20
190.55
 30
0.0
 11
135.785564
 21
179.55
 31
0.0
  0
ARC
  5
6CA
100
AcDbEntity
  8
LAY-8
  6
CONTINUOUS
 62
     2
100
AcDbCircle
 10
137.950627
 20
180.8
 30
0.0
 40
2.5
100
AcDbArc
 50
210.0
 51
30.0
  0
CIRCLE
  5
6CB
100
AcDbEntity
  8
LAY-8
  6
CONTINUOUS
 62
     2
100
AcDbCircle
 10
132.177125
 20
180.8
 30
0.0
 40
2.5
  0
ARC
  5
6CC
100
AcDbEntity
  8
LAY-9
  6
CONTINUOUS
 62
     1
100
AcDbCircle
 10
398.2
 20
496.6
 30
0.0
 40
1.6
100
AcDbArc
 50
180.0
 51
270.0
  0
LINE
  5
6CD
100
AcDbEntity
  8
LAY-9
  6
CONTINUOUS
 62
     1
100
AcDbLine
 10
398.2
 20
496.6
 30
0.0
 11
407.6
 21
496.6
 31
0.0
  0
LINE
  5
6CE
100
AcDbEntity
  8
LAY-9
  6
DASHED2
 62
     1
100
AcDbLine
 10
396.6
 20
210.3
 30
0.0
 11
396.6
 21
195.3
 31
0.0
  0
LINE
  5
6CF
100
AcDbEntity
  8
LAY-9
  6
DASHED2
 62
     1
100
AcDbLine
 10
396.6
 20
195.3
 30
0.0
 11
401.59997
 21
195.3
 31
0.0
  0
LINE
  5
6D0
100
AcDbEntity
  8
LAY-9
  6
CONTINUOUS
 62
     1
100
AcDbLine
 10
552.0
 20
468.2
 30
0.0
 11
552.0
 21
529.0
 31
0.0
  0
LINE
  5
6D1
100
AcDbEntity
  8
LAY-9
  6
CONTINUOUS
 62
     1
100
AcDbLine
 10
550.4
 20
468.2
 30
0.0
 11
550.4
 21
529.0
 31
0.0
  0
ARC
  5
6D2
100
AcDbEntity
  8
LAY-9
  6
CONTINUOUS
 62
     1
100
AcDbCircle
 10
559.4
 20
466.6
 30
0.0
 40
1.6
100
AcDbArc
 50
270.0
 51
90.0
  0
LINE
  5
6D3
100
AcDbEntity
  8
LAY-9
  6
CONTINUOUS
 62
     1
100
AcDbLine
 10
529.0
 20
465.0
 30
0.0
 11
559.4
 21
465.0
 31
0.0
  0
LINE
  5
6D4
100
AcDbEntity
  8
LAY-9
  6
CONTINUOUS
 62
     1
100
AcDbLine
 10
529.0
 20
466.6
 30
0.0
 11
559.4
 21
466.6
 31
0.0
  0
LINE
  5
6D5
100
AcDbEntity
  8
LAY-9
  6
DIVIDE
 62
     1
100
AcDbLine
 10
776.7
 20
522.9
 30
0.0
 11
776.7
 21
458.3
 31
0.0
  0
LINE
  5
6D6
100
AcDbEntity
  8
LAY-9
  6
CONTINUOUS
 62
     1
100
AcDbLine
 10
559.4
 20
465.0
 30
0.0
 11
776.7
 21
465.0
 31
0.0
  0
LINE
  5
6D7
100
AcDbEntity
  8
LAY-9
  6
CONTINUOUS
 62
     1
100
AcDbLine
 10
552.0
 20
468.2
 30
0.0
 11
559.4
 21
468.2
 31
0.0
  0
ARC
  5
6D8
100
AcDbEntity
  8
LAY-9
  6
CONTINUOUS
 62
     1
100
AcDbCircle
 10
552.0
 20
468.2
 30
0.0
 40
1.6
100
AcDbArc
 50
180.0
 51
270.0
  0
LINE
  5
6D9
100
AcDbEntity
  8
LAY-9
  6
CONTINUOUS
 62
     1
100
AcDbLine
 10
552.0
 20
228.2
 30
0.0
 11
552.0
 21
289.0
 31
0.0
  0
LINE
  5
6DA
100
AcDbEntity
  8
LAY-9
  6
CONTINUOUS
 62
     1
100
AcDbLine
 10
550.4
 20
228.2
 30
0.0
 11
550.4
 21
289.0
 31
0.0
  0
ARC
  5
6DB
100
AcDbEntity
  8
LAY-9
  6
CONTINUOUS
 62
     1
100
AcDbCircle
 10
559.4
 20
226.6
 30
0.0
 40
1.6
100
AcDbArc
 50
270.0
 51
90.0
  0
LINE
  5
6DC
100
AcDbEntity
  8
LAY-9
  6
CONTINUOUS
 62
     1
100
AcDbLine
 10
529.0
 20
225.0
 30
0.0
 11
559.4
 21
225.0
 31
0.0
  0
LINE
  5
6DD
100
AcDbEntity
  8
LAY-9
  6
CONTINUOUS
 62
     1
100
AcDbLine
 10
529.0
 20
226.6
 30
0.0
 11
559.4
 21
226.6
 31
0.0
  0
LINE
  5
6DE
100
AcDbEntity
  8
LAY-9
  6
DIVIDE
 62
     1
100
AcDbLine
 10
696.7
 20
282.9
 30
0.0
 11
696.7
 21
218.3
 31
0.0
  0
LINE
  5
6DF
100
AcDbEntity
  8
LAY-9
  6
CONTINUOUS
 62
     1
100
AcDbLine
 10
559.4
 20
225.0
 30
0.0
 11
696.7
 21
225.0
 31
0.0
  0
LINE
  5
6E0
100
AcDbEntity
  8
LAY-9
  6
CONTINUOUS
 62
     1
100
AcDbLine
 10
552.0
 20
228.2
 30
0.0
 11
559.4
 21
228.2
 31
0.0
  0
ARC
  5
6E1
100
AcDbEntity
  8
LAY-9
  6
CONTINUOUS
 62
     1
100
AcDbCircle
 10
552.0
 20
228.2
 30
0.0
 40
1.6
100
AcDbArc
 50
180.0
 51
270.0
  0
LINE
  5
6E2
100
AcDbEntity
  8
LAY-9
  6
CONTINUOUS
 62
     1
100
AcDbLine
 10
559.319805
 20
114.0
 30
0.0
 11
559.5
 21
114.180195
 31
0.0
  0
LINE
  5
6E3
100
AcDbEntity
  8
LAY-9
  6
CONTINUOUS
 62
     1
100
AcDbLine
 10
571.0
 20
116.0
 30
0.0
 11
599.0
 21
144.0
 31
0.0
  0
LINE
  5
6E4
100
AcDbEntity
  8
LAY-9
  6
CONTINUOUS
 62
     1
100
AcDbLine
 10
571.0
 20
119.535534
 30
0.0
 11
595.464466
 21
144.0
 31
0.0
  0
LINE
  5
6E5
100
AcDbEntity
  8
LAY-9
  6
CONTINUOUS
 62
     1
100
AcDbLine
 10
571.0
 20
123.071068
 30
0.0
 11
591.928932
 21
144.0
 31
0.0
  0
LINE
  5
6E6
100
AcDbEntity
  8
LAY-9
  6
CONTINUOUS
 62
     1
100
AcDbLine
 10
571.0
 20
126.606602
 30
0.0
 11
588.393398
 21
144.0
 31
0.0
  0
LINE
  5
6E7
100
AcDbEntity
  8
LAY-9
  6
CONTINUOUS
 62
     1
100
AcDbLine
 10
571.0
 20
130.142136
 30
0.0
 11
584.857864
 21
144.0
 31
0.0
  0
LINE
  5
6E8
100
AcDbEntity
  8
LAY-9
  6
CONTINUOUS
 62
     1
100
AcDbLine
 10
571.0
 20
133.67767
 30
0.0
 11
581.32233
 21
144.0
 31
0.0
  0
LINE
  5
6E9
100
AcDbEntity
  8
LAY-9
  6
CONTINUOUS
 62
     1
100
AcDbLine
 10
571.0
 20
137.213203
 30
0.0
 11
577.786797
 21
144.0
 31
0.0
  0
LINE
  5
6EA
100
AcDbEntity
  8
LAY-9
  6
CONTINUOUS
 62
     1
100
AcDbLine
 10
571.0
 20
140.748737
 30
0.0
 11
574.251263
 21
144.0
 31
0.0
  0
LINE
  5
6EB
100
AcDbEntity
  8
LAY-9
  6
CONTINUOUS
 62
     1
100
AcDbLine
 10
574.535534
 20
116.0
 30
0.0
 11
602.0
 21
143.464466
 31
0.0
  0
LINE
  5
6EC
100
AcDbEntity
  8
LAY-9
  6
CONTINUOUS
 62
     1
100
AcDbLine
 10
578.071068
 20
116.0
 30
0.0
 11
602.0
 21
139.928932
 31
0.0
  0
LINE
  5
6ED
100
AcDbEntity
  8
LAY-9
  6
CONTINUOUS
 62
     1
100
AcDbLine
 10
581.606602
 20
116.0
 30
0.0
 11
602.0
 21
136.393398
 31
0.0
  0
LINE
  5
6EE
100
AcDbEntity
  8
LAY-9
  6
CONTINUOUS
 62
     1
100
AcDbLine
 10
585.142136
 20
116.0
 30
0.0
 11
602.0
 21
132.857864
 31
0.0
  0
LINE
  5
6EF
100
AcDbEntity
  8
LAY-9
  6
CONTINUOUS
 62
     1
100
AcDbLine
 10
588.67767
 20
116.0
 30
0.0
 11
602.0
 21
129.32233
 31
0.0
  0
LINE
  5
6F0
100
AcDbEntity
  8
LAY-9
  6
CONTINUOUS
 62
     1
100
AcDbLine
 10
592.213203
 20
116.0
 30
0.0
 11
602.0
 21
125.786797
 31
0.0
  0
LINE
  5
6F1
100
AcDbEntity
  8
LAY-9
  6
CONTINUOUS
 62
     1
100
AcDbLine
 10
595.748737
 20
116.0
 30
0.0
 11
602.0
 21
122.251263
 31
0.0
  0
LINE
  5
6F2
100
AcDbEntity
  8
LAY-9
  6
CONTINUOUS
 62
     1
100
AcDbLine
 10
599.284271
 20
116.0
 30
0.0
 11
602.0
 21
118.715729
 31
0.0
  0
LINE
  5
6F3
100
AcDbEntity
  8
LAY-9
  6
CONTINUOUS
 62
     1
100
AcDbLine
 10
77.0
 20
495.0
 30
0.0
 11
333.5
 21
495.0
 31
0.0
  0
LINE
  5
6F4
100
AcDbEntity
  8
LAY-9
  6
CONTINUOUS
 62
     1
100
AcDbLine
 10
92.0
 20
492.0
 30
0.0
 11
332.0
 21
492.0
 31
0.0
  0
LINE
  5
6F5
100
AcDbEntity
  8
LAY-9
  6
CONTINUOUS
 62
     1
100
AcDbLine
 10
92.0
 20
220.3
 30
0.0
 11
334.0
 21
220.3
 31
0.0
  0
POLYLINE
  5
6F6
100
AcDbEntity
  8
LAY-9
  6
CONTINUOUS
 62
     1
100
AcDb2dPolyline
 66
     1
 10
0.0
 20
0.0
 30
0.0
 70
   128
  0
VERTEX
  5
6F7
100
AcDbEntity
  8
LAY-9
  6
CONTINUOUS
 62
     1
100
AcDbVertex
100
AcDb2dVertex
 10
333.5
 20
495.0
 30
0.0
  0
VERTEX
  5
6F8
100
AcDbEntity
  8
LAY-9
  6
CONTINUOUS
 62
     1
100
AcDbVertex
100
AcDb2dVertex
 10
333.532016
 20
495.091282
 30
0.0
  0
VERTEX
  5
6F9
100
AcDbEntity
  8
LAY-9
  6
CONTINUOUS
 62
     1
100
AcDbVertex
100
AcDb2dVertex
 10
333.619556
 20
495.349111
 30
0.0
  0
VERTEX
  5
6FA
100
AcDbEntity
  8
LAY-9
  6
CONTINUOUS
 62
     1
100
AcDbVertex
100
AcDb2dVertex
 10
333.749856
 20
495.749461
 30
0.0
  0
VERTEX
  5
6FB
100
AcDbEntity
  8
LAY-9
  6
CONTINUOUS
 62
     1
100
AcDbVertex
100
AcDb2dVertex
 10
333.910153
 20
496.268308
 30
0.0
  0
VERTEX
  5
6FC
100
AcDbEntity
  8
LAY-9
  6
CONTINUOUS
 62
     1
100
AcDbVertex
100
AcDb2dVertex
 10
334.087683
 20
496.881626
 30
0.0
  0
VERTEX
  5
6FD
100
AcDbEntity
  8
LAY-9
  6
CONTINUOUS
 62
     1
100
AcDbVertex
100
AcDb2dVertex
 10
334.269682
 20
497.565389
 30
0.0
  0
VERTEX
  5
6FE
100
AcDbEntity
  8
LAY-9
  6
CONTINUOUS
 62
     1
100
AcDbVertex
100
AcDb2dVertex
 10
334.443388
 20
498.295572
 30
0.0
  0
VERTEX
  5
6FF
100
AcDbEntity
  8
LAY-9
  6
CONTINUOUS
 62
     1
100
AcDbVertex
100
AcDb2dVertex
 10
334.596036
 20
499.04815
 30
0.0
  0
VERTEX
  5
700
100
AcDbEntity
  8
LAY-9
  6
CONTINUOUS
 62
     1
100
AcDbVertex
100
AcDb2dVertex
 10
334.714863
 20
499.799098
 30
0.0
  0
VERTEX
  5
701
100
AcDbEntity
  8
LAY-9
  6
CONTINUOUS
 62
     1
100
AcDbVertex
100
AcDb2dVertex
 10
334.787105
 20
500.524389
 30
0.0
  0
VERTEX
  5
702
100
AcDbEntity
  8
LAY-9
  6
CONTINUOUS
 62
     1
100
AcDbVertex
100
AcDb2dVertex
 10
334.8
 20
501.2
 30
0.0
  0
VERTEX
  5
703
100
AcDbEntity
  8
LAY-9
  6
CONTINUOUS
 62
     1
100
AcDbVertex
100
AcDb2dVertex
 10
334.762452
 20
501.680142
 30
0.0
  0
VERTEX
  5
704
100
AcDbEntity
  8
LAY-9
  6
CONTINUOUS
 62
     1
100
AcDbVertex
100
AcDb2dVertex
 10
334.685716
 20
502.123575
 30
0.0
  0
VERTEX
  5
705
100
AcDbEntity
  8
LAY-9
  6
CONTINUOUS
 62
     1
100
AcDbVertex
100
AcDb2dVertex
 10
334.574448
 20
502.538404
 30
0.0
  0
VERTEX
  5
706
100
AcDbEntity
  8
LAY-9
  6
CONTINUOUS
 62
     1
100
AcDbVertex
100
AcDb2dVertex
 10
334.433305
 20
502.932735
 30
0.0
  0
VERTEX
  5
707
100
AcDbEntity
  8
LAY-9
  6
CONTINUOUS
 62
     1
100
AcDbVertex
100
AcDb2dVertex
 10
334.266944
 20
503.314674
 30
0.0
  0
VERTEX
  5
708
100
AcDbEntity
  8
LAY-9
  6
CONTINUOUS
 62
     1
100
AcDbVertex
100
AcDb2dVertex
 10
334.080023
 20
503.692327
 30
0.0
  0
VERTEX
  5
709
100
AcDbEntity
  8
LAY-9
  6
CONTINUOUS
 62
     1
100
AcDbVertex
100
AcDb2dVertex
 10
333.877198
 20
504.073799
 30
0.0
  0
VERTEX
  5
70A
100
AcDbEntity
  8
LAY-9
  6
CONTINUOUS
 62
     1
100
AcDbVertex
100
AcDb2dVertex
 10
333.663127
 20
504.467197
 30
0.0
  0
VERTEX
  5
70B
100
AcDbEntity
  8
LAY-9
  6
CONTINUOUS
 62
     1
100
AcDbVertex
100
AcDb2dVertex
 10
333.442465
 20
504.880625
 30
0.0
  0
VERTEX
  5
70C
100
AcDbEntity
  8
LAY-9
  6
CONTINUOUS
 62
     1
100
AcDbVertex
100
AcDb2dVertex
 10
333.219871
 20
505.322191
 30
0.0
  0
VERTEX
  5
70D
100
AcDbEntity
  8
LAY-9
  6
CONTINUOUS
 62
     1
100
AcDbVertex
100
AcDb2dVertex
 10
333.0
 20
505.8
 30
0.0
  0
VERTEX
  5
70E
100
AcDbEntity
  8
LAY-9
  6
CONTINUOUS
 62
     1
100
AcDbVertex
100
AcDb2dVertex
 10
332.744497
 20
506.428983
 30
0.0
  0
VERTEX
  5
70F
100
AcDbEntity
  8
LAY-9
  6
CONTINUOUS
 62
     1
100
AcDbVertex
100
AcDb2dVertex
 10
332.502068
 20
507.100654
 30
0.0
  0
VERTEX
  5
710
100
AcDbEntity
  8
LAY-9
  6
CONTINUOUS
 62
     1
100
AcDbVertex
100
AcDb2dVertex
 10
332.275087
 20
507.793399
 30
0.0
  0
VERTEX
  5
711
100
AcDbEntity
  8
LAY-9
  6
CONTINUOUS
 62
     1
100
AcDbVertex
100
AcDb2dVertex
 10
332.065924
 20
508.485599
 30
0.0
  0
VERTEX
  5
712
100
AcDbEntity
  8
LAY-9
  6
CONTINUOUS
 62
     1
100
AcDbVertex
100
AcDb2dVertex
 10
331.876954
 20
509.15564
 30
0.0
  0
VERTEX
  5
713
100
AcDbEntity
  8
LAY-9
  6
CONTINUOUS
 62
     1
100
AcDbVertex
100
AcDb2dVertex
 10
331.710547
 20
509.781904
 30
0.0
  0
VERTEX
  5
714
100
AcDbEntity
  8
LAY-9
  6
CONTINUOUS
 62
     1
100
AcDbVertex
100
AcDb2dVertex
 10
331.569076
 20
510.342774
 30
0.0
  0
VERTEX
  5
715
100
AcDbEntity
  8
LAY-9
  6
CONTINUOUS
 62
     1
100
AcDbVertex
100
AcDb2dVertex
 10
331.454914
 20
510.816636
 30
0.0
  0
VERTEX
  5
716
100
AcDbEntity
  8
LAY-9
  6
CONTINUOUS
 62
     1
100
AcDbVertex
100
AcDb2dVertex
 10
331.370432
 20
511.181872
 30
0.0
  0
VERTEX
  5
717
100
AcDbEntity
  8
LAY-9
  6
CONTINUOUS
 62
     1
100
AcDbVertex
100
AcDb2dVertex
 10
331.318003
 20
511.416865
 30
0.0
  0
VERTEX
  5
718
100
AcDbEntity
  8
LAY-9
  6
CONTINUOUS
 62
     1
100
AcDbVertex
100
AcDb2dVertex
 10
331.3
 20
511.5
 30
0.0
  0
SEQEND
  5
719
100
AcDbEntity
  8
LAY-9
  6
CONTINUOUS
 62
     1
  0
POLYLINE
  5
71A
100
AcDbEntity
  8
LAY-9
  6
CONTINUOUS
 62
     1
100
AcDb2dPolyline
 66
     1
 10
0.0
 20
0.0
 30
0.0
 70
   128
  0
VERTEX
  5
71B
100
AcDbEntity
  8
LAY-9
  6
CONTINUOUS
 62
     1
100
AcDbVertex
100
AcDb2dVertex
 10
332.0
 20
492.0
 30
0.0
  0
VERTEX
  5
71C
100
AcDbEntity
  8
LAY-9
  6
CONTINUOUS
 62
     1
100
AcDbVertex
100
AcDb2dVertex
 10
331.976458
 20
491.923996
 30
0.0
  0
VERTEX
  5
71D
100
AcDbEntity
  8
LAY-9
  6
CONTINUOUS
 62
     1
100
AcDbVertex
100
AcDb2dVertex
 10
331.911281
 20
491.708864
 30
0.0
  0
VERTEX
  5
71E
100
AcDbEntity
  8
LAY-9
  6
CONTINUOUS
 62
     1
100
AcDbVertex
100
AcDb2dVertex
 10
331.812644
 20
491.373927
 30
0.0
  0
VERTEX
  5
71F
100
AcDbEntity
  8
LAY-9
  6
CONTINUOUS
 62
     1
100
AcDbVertex
100
AcDb2dVertex
 10
331.688723
 20
490.938505
 30
0.0
  0
VERTEX
  5
720
100
AcDbEntity
  8
LAY-9
  6
CONTINUOUS
 62
     1
100
AcDbVertex
100
AcDb2dVertex
 10
331.547692
 20
490.421921
 30
0.0
  0
VERTEX
  5
721
100
AcDbEntity
  8
LAY-9
  6
CONTINUOUS
 62
     1
100
AcDbVertex
100
AcDb2dVertex
 10
331.397726
 20
489.843495
 30
0.0
  0
VERTEX
  5
722
100
AcDbEntity
  8
LAY-9
  6
CONTINUOUS
 62
     1
100
AcDbVertex
100
AcDb2dVertex
 10
331.247
 20
489.222549
 30
0.0
  0
VERTEX
  5
723
100
AcDbEntity
  8
LAY-9
  6
CONTINUOUS
 62
     1
100
AcDbVertex
100
AcDb2dVertex
 10
331.10369
 20
488.578406
 30
0.0
  0
VERTEX
  5
724
100
AcDbEntity
  8
LAY-9
  6
CONTINUOUS
 62
     1
100
AcDbVertex
100
AcDb2dVertex
 10
330.97597
 20
487.930385
 30
0.0
  0
VERTEX
  5
725
100
AcDbEntity
  8
LAY-9
  6
CONTINUOUS
 62
     1
100
AcDbVertex
100
AcDb2dVertex
 10
330.872015
 20
487.297809
 30
0.0
  0
VERTEX
  5
726
100
AcDbEntity
  8
LAY-9
  6
CONTINUOUS
 62
     1
100
AcDbVertex
100
AcDb2dVertex
 10
330.8
 20
486.7
 30
0.0
  0
VERTEX
  5
727
100
AcDbEntity
  8
LAY-9
  6
CONTINUOUS
 62
     1
100
AcDbVertex
100
AcDb2dVertex
 10
330.768615
 20
486.21972
 30
0.0
  0
VERTEX
  5
728
100
AcDbEntity
  8
LAY-9
  6
CONTINUOUS
 62
     1
100
AcDbVertex
100
AcDb2dVertex
 10
330.766591
 20
485.773275
 30
0.0
  0
VERTEX
  5
729
100
AcDbEntity
  8
LAY-9
  6
CONTINUOUS
 62
     1
100
AcDbVertex
100
AcDb2dVertex
 10
330.7929
 20
485.353526
 30
0.0
  0
VERTEX
  5
72A
100
AcDbEntity
  8
LAY-9
  6
CONTINUOUS
 62
     1
100
AcDbVertex
100
AcDb2dVertex
 10
330.846514
 20
484.953336
 30
0.0
  0
VERTEX
  5
72B
100
AcDbEntity
  8
LAY-9
  6
CONTINUOUS
 62
     1
100
AcDbVertex
100
AcDb2dVertex
 10
330.926404
 20
484.565565
 30
0.0
  0
VERTEX
  5
72C
100
AcDbEntity
  8
LAY-9
  6
CONTINUOUS
 62
     1
100
AcDbVertex
100
AcDb2dVertex
 10
331.031544
 20
484.183075
 30
0.0
  0
VERTEX
  5
72D
100
AcDbEntity
  8
LAY-9
  6
CONTINUOUS
 62
     1
100
AcDbVertex
100
AcDb2dVertex
 10
331.160904
 20
483.798729
 30
0.0
  0
VERTEX
  5
72E
100
AcDbEntity
  8
LAY-9
  6
CONTINUOUS
 62
     1
100
AcDbVertex
100
AcDb2dVertex
 10
331.313458
 20
483.405386
 30
0.0
  0
VERTEX
  5
72F
100
AcDbEntity
  8
LAY-9
  6
CONTINUOUS
 62
     1
100
AcDbVertex
100
AcDb2dVertex
 10
331.488177
 20
482.995909
 30
0.0
  0
VERTEX
  5
730
100
AcDbEntity
  8
LAY-9
  6
CONTINUOUS
 62
     1
100
AcDbVertex
100
AcDb2dVertex
 10
331.684034
 20
482.56316
 30
0.0
  0
VERTEX
  5
731
100
AcDbEntity
  8
LAY-9
  6
CONTINUOUS
 62
     1
100
AcDbVertex
100
AcDb2dVertex
 10
331.9
 20
482.1
 30
0.0
  0
VERTEX
  5
732
100
AcDbEntity
  8
LAY-9
  6
CONTINUOUS
 62
     1
100
AcDbVertex
100
AcDb2dVertex
 10
332.130024
 20
481.611405
 30
0.0
  0
VERTEX
  5
733
100
AcDbEntity
  8
LAY-9
  6
CONTINUOUS
 62
     1
100
AcDbVertex
100
AcDb2dVertex
 10
332.371482
 20
481.100906
 30
0.0
  0
VERTEX
  5
734
100
AcDbEntity
  8
LAY-9
  6
CONTINUOUS
 62
     1
100
AcDbVertex
100
AcDb2dVertex
 10
332.617348
 20
480.582923
 30
0.0
  0
VERTEX
  5
735
100
AcDbEntity
  8
LAY-9
  6
CONTINUOUS
 62
     1
100
AcDbVertex
100
AcDb2dVertex
 10
332.860599
 20
480.071875
 30
0.0
  0
VERTEX
  5
736
100
AcDbEntity
  8
LAY-9
  6
CONTINUOUS
 62
     1
100
AcDbVertex
100
AcDb2dVertex
 10
333.094208
 20
479.582182
 30
0.0
  0
VERTEX
  5
737
100
AcDbEntity
  8
LAY-9
  6
CONTINUOUS
 62
     1
100
AcDbVertex
100
AcDb2dVertex
 10
333.311152
 20
479.128265
 30
0.0
  0
VERTEX
  5
738
100
AcDbEntity
  8
LAY-9
  6
CONTINUOUS
 62
     1
100
AcDbVertex
100
AcDb2dVertex
 10
333.504404
 20
478.724542
 30
0.0
  0
VERTEX
  5
739
100
AcDbEntity
  8
LAY-9
  6
CONTINUOUS
 62
     1
100
AcDbVertex
100
AcDb2dVertex
 10
333.66694
 20
478.385435
 30
0.0
  0
VERTEX
  5
73A
100
AcDbEntity
  8
LAY-9
  6
CONTINUOUS
 62
     1
100
AcDbVertex
100
AcDb2dVertex
 10
333.791734
 20
478.125362
 30
0.0
  0
VERTEX
  5
73B
100
AcDbEntity
  8
LAY-9
  6
CONTINUOUS
 62
     1
100
AcDbVertex
100
AcDb2dVertex
 10
333.871763
 20
477.958744
 30
0.0
  0
VERTEX
  5
73C
100
AcDbEntity
  8
LAY-9
  6
CONTINUOUS
 62
     1
100
AcDbVertex
100
AcDb2dVertex
 10
333.9
 20
477.9
 30
0.0
  0
SEQEND
  5
73D
100
AcDbEntity
  8
LAY-9
  6
CONTINUOUS
 62
     1
  0
POLYLINE
  5
73E
100
AcDbEntity
  8
LAY-9
  6
CONTINUOUS
 62
     1
100
AcDb2dPolyline
 66
     1
 10
0.0
 20
0.0
 30
0.0
 70
   128
  0
VERTEX
  5
73F
100
AcDbEntity
  8
LAY-9
  6
CONTINUOUS
 62
     1
100
AcDbVertex
100
AcDb2dVertex
 10
334.0
 20
220.3
 30
0.0
  0
VERTEX
  5
740
100
AcDbEntity
  8
LAY-9
  6
CONTINUOUS
 62
     1
100
AcDbVertex
100
AcDb2dVertex
 10
334.098383
 20
220.569517
 30
0.0
  0
VERTEX
  5
741
100
AcDbEntity
  8
LAY-9
  6
CONTINUOUS
 62
     1
100
AcDbVertex
100
AcDb2dVertex
 10
334.370378
 20
221.336048
 30
0.0
  0
VERTEX
  5
742
100
AcDbEntity
  8
LAY-9
  6
CONTINUOUS
 62
     1
100
AcDbVertex
100
AcDb2dVertex
 10
334.781252
 20
222.536559
 30
0.0
  0
VERTEX
  5
743
100
AcDbEntity
  8
LAY-9
  6
CONTINUOUS
 62
     1
100
AcDbVertex
100
AcDb2dVertex
 10
335.296272
 20
224.108017
 30
0.0
  0
VERTEX
  5
744
100
AcDbEntity
  8
LAY-9
  6
CONTINUOUS
 62
     1
100
AcDbVertex
100
AcDb2dVertex
 10
335.880707
 20
225.98739
 30
0.0
  0
VERTEX
  5
745
100
AcDbEntity
  8
LAY-9
  6
CONTINUOUS
 62
     1
100
AcDbVertex
100
AcDb2dVertex
 10
336.499824
 20
228.111645
 30
0.0
  0
VERTEX
  5
746
100
AcDbEntity
  8
LAY-9
  6
CONTINUOUS
 62
     1
100
AcDbVertex
100
AcDb2dVertex
 10
337.11889
 20
230.417749
 30
0.0
  0
VERTEX
  5
747
100
AcDbEntity
  8
LAY-9
  6
CONTINUOUS
 62
     1
100
AcDbVertex
100
AcDb2dVertex
 10
337.703173
 20
232.84267
 30
0.0
  0
VERTEX
  5
748
100
AcDbEntity
  8
LAY-9
  6
CONTINUOUS
 62
     1
100
AcDbVertex
100
AcDb2dVertex
 10
338.21794
 20
235.323373
 30
0.0
  0
VERTEX
  5
749
100
AcDbEntity
  8
LAY-9
  6
CONTINUOUS
 62
     1
100
AcDbVertex
100
AcDb2dVertex
 10
338.62846
 20
237.796828
 30
0.0
  0
VERTEX
  5
74A
100
AcDbEntity
  8
LAY-9
  6
CONTINUOUS
 62
     1
100
AcDbVertex
100
AcDb2dVertex
 10
338.9
 20
240.2
 30
0.0
  0
VERTEX
  5
74B
100
AcDbEntity
  8
LAY-9
  6
CONTINUOUS
 62
     1
100
AcDbVertex
100
AcDb2dVertex
 10
339.008352
 20
242.684402
 30
0.0
  0
VERTEX
  5
74C
100
AcDbEntity
  8
LAY-9
  6
CONTINUOUS
 62
     1
100
AcDbVertex
100
AcDb2dVertex
 10
338.933391
 20
245.024591
 30
0.0
  0
VERTEX
  5
74D
100
AcDbEntity
  8
LAY-9
  6
CONTINUOUS
 62
     1
100
AcDbVertex
100
AcDb2dVertex
 10
338.698695
 20
247.235134
 30
0.0
  0
VERTEX
  5
74E
100
AcDbEntity
  8
LAY-9
  6
CONTINUOUS
 62
     1
100
AcDbVertex
100
AcDb2dVertex
 10
338.327843
 20
249.330596
 30
0.0
  0
VERTEX
  5
74F
100
AcDbEntity
  8
LAY-9
  6
CONTINUOUS
 62
     1
100
AcDbVertex
100
AcDb2dVertex
 10
337.844411
 20
251.32554
 30
0.0
  0
VERTEX
  5
750
100
AcDbEntity
  8
LAY-9
  6
CONTINUOUS
 62
     1
100
AcDbVertex
100
AcDb2dVertex
 10
337.271977
 20
253.234533
 30
0.0
  0
VERTEX
  5
751
100
AcDbEntity
  8
LAY-9
  6
CONTINUOUS
 62
     1
100
AcDbVertex
100
AcDb2dVertex
 10
336.634119
 20
255.07214
 30
0.0
  0
VERTEX
  5
752
100
AcDbEntity
  8
LAY-9
  6
CONTINUOUS
 62
     1
100
AcDbVertex
100
AcDb2dVertex
 10
335.954415
 20
256.852924
 30
0.0
  0
VERTEX
  5
753
100
AcDbEntity
  8
LAY-9
  6
CONTINUOUS
 62
     1
100
AcDbVertex
100
AcDb2dVertex
 10
335.256442
 20
258.591453
 30
0.0
  0
VERTEX
  5
754
100
AcDbEntity
  8
LAY-9
  6
CONTINUOUS
 62
     1
100
AcDbVertex
100
AcDb2dVertex
 10
334.563777
 20
260.30229
 30
0.0
  0
VERTEX
  5
755
100
AcDbEntity
  8
LAY-9
  6
CONTINUOUS
 62
     1
100
AcDbVertex
100
AcDb2dVertex
 10
333.9
 20
262.0
 30
0.0
  0
VERTEX
  5
756
100
AcDbEntity
  8
LAY-9
  6
CONTINUOUS
 62
     1
100
AcDbVertex
100
AcDb2dVertex
 10
333.401735
 20
263.370122
 30
0.0
  0
VERTEX
  5
757
100
AcDbEntity
  8
LAY-9
  6
CONTINUOUS
 62
     1
100
AcDbVertex
100
AcDb2dVertex
 10
332.948964
 20
264.754257
 30
0.0
  0
VERTEX
  5
758
100
AcDbEntity
  8
LAY-9
  6
CONTINUOUS
 62
     1
100
AcDbVertex
100
AcDb2dVertex
 10
332.553073
 20
266.165484
 30
0.0
  0
VERTEX
  5
759
100
AcDbEntity
  8
LAY-9
  6
CONTINUOUS
 62
     1
100
AcDbVertex
100
AcDb2dVertex
 10
332.225448
 20
267.616881
 30
0.0
  0
VERTEX
  5
75A
100
AcDbEntity
  8
LAY-9
  6
CONTINUOUS
 62
     1
100
AcDbVertex
100
AcDb2dVertex
 10
331.977477
 20
269.121526
 30
0.0
  0
VERTEX
  5
75B
100
AcDbEntity
  8
LAY-9
  6
CONTINUOUS
 62
     1
100
AcDbVertex
100
AcDb2dVertex
 10
331.820545
 20
270.692499
 30
0.0
  0
VERTEX
  5
75C
100
AcDbEntity
  8
LAY-9
  6
CONTINUOUS
 62
     1
100
AcDbVertex
100
AcDb2dVertex
 10
331.766039
 20
272.342876
 30
0.0
  0
VERTEX
  5
75D
100
AcDbEntity
  8
LAY-9
  6
CONTINUOUS
 62
     1
100
AcDbVertex
100
AcDb2dVertex
 10
331.825345
 20
274.085736
 30
0.0
  0
VERTEX
  5
75E
100
AcDbEntity
  8
LAY-9
  6
CONTINUOUS
 62
     1
100
AcDbVertex
100
AcDb2dVertex
 10
332.00985
 20
275.934158
 30
0.0
  0
VERTEX
  5
75F
100
AcDbEntity
  8
LAY-9
  6
CONTINUOUS
 62
     1
100
AcDbVertex
100
AcDb2dVertex
 10
332.330939
 20
277.90122
 30
0.0
  0
VERTEX
  5
760
100
AcDbEntity
  8
LAY-9
  6
CONTINUOUS
 62
     1
100
AcDbVertex
100
AcDb2dVertex
 10
332.8
 20
280.0
 30
0.0
  0
VERTEX
  5
761
100
AcDbEntity
  8
LAY-9
  6
CONTINUOUS
 62
     1
100
AcDbVertex
100
AcDb2dVertex
 10
333.055631
 20
280.969232
 30
0.0
  0
VERTEX
  5
762
100
AcDbEntity
  8
LAY-9
  6
CONTINUOUS
 62
     1
100
AcDbVertex
100
AcDb2dVertex
 10
333.332734
 20
281.94576
 30
0.0
  0
VERTEX
  5
763
100
AcDbEntity
  8
LAY-9
  6
CONTINUOUS
 62
     1
100
AcDbVertex
100
AcDb2dVertex
 10
333.621654
 20
282.908595
 30
0.0
  0
VERTEX
  5
764
100
AcDbEntity
  8
LAY-9
  6
CONTINUOUS
 62
     1
100
AcDbVertex
100
AcDb2dVertex
 10
333.912739
 20
283.836753
 30
0.0
  0
VERTEX
  5
765
100
AcDbEntity
  8
LAY-9
  6
CONTINUOUS
 62
     1
100
AcDbVertex
100
AcDb2dVertex
 10
334.196334
 20
284.709246
 30
0.0
  0
VERTEX
  5
766
100
AcDbEntity
  8
LAY-9
  6
CONTINUOUS
 62
     1
100
AcDbVertex
100
AcDb2dVertex
 10
334.462785
 20
285.505088
 30
0.0
  0
VERTEX
  5
767
100
AcDbEntity
  8
LAY-9
  6
CONTINUOUS
 62
     1
100
AcDbVertex
100
AcDb2dVertex
 10
334.702439
 20
286.203292
 30
0.0
  0
VERTEX
  5
768
100
AcDbEntity
  8
LAY-9
  6
CONTINUOUS
 62
     1
100
AcDbVertex
100
AcDb2dVertex
 10
334.905641
 20
286.782872
 30
0.0
  0
VERTEX
  5
769
100
AcDbEntity
  8
LAY-9
  6
CONTINUOUS
 62
     1
100
AcDbVertex
100
AcDb2dVertex
 10
335.062738
 20
287.222841
 30
0.0
  0
VERTEX
  5
76A
100
AcDbEntity
  8
LAY-9
  6
CONTINUOUS
 62
     1
100
AcDbVertex
100
AcDb2dVertex
 10
335.164075
 20
287.502212
 30
0.0
  0
VERTEX
  5
76B
100
AcDbEntity
  8
LAY-9
  6
CONTINUOUS
 62
     1
100
AcDbVertex
100
AcDb2dVertex
 10
335.2
 20
287.6
 30
0.0
  0
SEQEND
  5
76C
100
AcDbEntity
  8
LAY-9
  6
CONTINUOUS
 62
     1
  0
POLYLINE
  5
76D
100
AcDbEntity
  8
LAY-9
  6
CONTINUOUS
 62
     1
100
AcDb2dPolyline
 66
     1
 10
0.0
 20
0.0
 30
0.0
 70
   128
  0
VERTEX
  5
76E
100
AcDbEntity
  8
LAY-9
  6
CONTINUOUS
 62
     1
100
AcDbVertex
100
AcDb2dVertex
 10
332.0
 20
210.3
 30
0.0
  0
VERTEX
  5
76F
100
AcDbEntity
  8
LAY-9
  6
CONTINUOUS
 62
     1
100
AcDbVertex
100
AcDb2dVertex
 10
331.980532
 20
210.186609
 30
0.0
  0
VERTEX
  5
770
100
AcDbEntity
  8
LAY-9
  6
CONTINUOUS
 62
     1
100
AcDbVertex
100
AcDb2dVertex
 10
331.926279
 20
209.865345
 30
0.0
  0
VERTEX
  5
771
100
AcDbEntity
  8
LAY-9
  6
CONTINUOUS
 62
     1
100
AcDbVertex
100
AcDb2dVertex
 10
331.843467
 20
209.364574
 30
0.0
  0
VERTEX
  5
772
100
AcDbEntity
  8
LAY-9
  6
CONTINUOUS
 62
     1
100
AcDbVertex
100
AcDb2dVertex
 10
331.738322
 20
208.712662
 30
0.0
  0
VERTEX
  5
773
100
AcDbEntity
  8
LAY-9
  6
CONTINUOUS
 62
     1
100
AcDbVertex
100
AcDb2dVertex
 10
331.617071
 20
207.937973
 30
0.0
  0
VERTEX
  5
774
100
AcDbEntity
  8
LAY-9
  6
CONTINUOUS
 62
     1
100
AcDbVertex
100
AcDb2dVertex
 10
331.485939
 20
207.068873
 30
0.0
  0
VERTEX
  5
775
100
AcDbEntity
  8
LAY-9
  6
CONTINUOUS
 62
     1
100
AcDbVertex
100
AcDb2dVertex
 10
331.351154
 20
206.133728
 30
0.0
  0
VERTEX
  5
776
100
AcDbEntity
  8
LAY-9
  6
CONTINUOUS
 62
     1
100
AcDbVertex
100
AcDb2dVertex
 10
331.218941
 20
205.160903
 30
0.0
  0
VERTEX
  5
777
100
AcDbEntity
  8
LAY-9
  6
CONTINUOUS
 62
     1
100
AcDbVertex
100
AcDb2dVertex
 10
331.095527
 20
204.178763
 30
0.0
  0
VERTEX
  5
778
100
AcDbEntity
  8
LAY-9
  6
CONTINUOUS
 62
     1
100
AcDbVertex
100
AcDb2dVertex
 10
330.987138
 20
203.215673
 30
0.0
  0
VERTEX
  5
779
100
AcDbEntity
  8
LAY-9
  6
CONTINUOUS
 62
     1
100
AcDbVertex
100
AcDb2dVertex
 10
330.9
 20
202.3
 30
0.0
  0
VERTEX
  5
77A
100
AcDbEntity
  8
LAY-9
  6
CONTINUOUS
 62
     1
100
AcDbVertex
100
AcDb2dVertex
 10
330.835349
 20
201.377795
 30
0.0
  0
VERTEX
  5
77B
100
AcDbEntity
  8
LAY-9
  6
CONTINUOUS
 62
     1
100
AcDbVertex
100
AcDb2dVertex
 10
330.805379
 20
200.530086
 30
0.0
  0
VERTEX
  5
77C
100
AcDbEntity
  8
LAY-9
  6
CONTINUOUS
 62
     1
100
AcDbVertex
100
AcDb2dVertex
 10
330.811932
 20
199.740795
 30
0.0
  0
VERTEX
  5
77D
100
AcDbEntity
  8
LAY-9
  6
CONTINUOUS
 62
     1
100
AcDbVertex
100
AcDb2dVertex
 10
330.856847
 20
198.993841
 30
0.0
  0
VERTEX
  5
77E
100
AcDbEntity
  8
LAY-9
  6
CONTINUOUS
 62
     1
100
AcDbVertex
100
AcDb2dVertex
 10
330.941965
 20
198.273147
 30
0.0
  0
VERTEX
  5
77F
100
AcDbEntity
  8
LAY-9
  6
CONTINUOUS
 62
     1
100
AcDbVertex
100
AcDb2dVertex
 10
331.069127
 20
197.562633
 30
0.0
  0
VERTEX
  5
780
100
AcDbEntity
  8
LAY-9
  6
CONTINUOUS
 62
     1
100
AcDbVertex
100
AcDb2dVertex
 10
331.240172
 20
196.84622
 30
0.0
  0
VERTEX
  5
781
100
AcDbEntity
  8
LAY-9
  6
CONTINUOUS
 62
     1
100
AcDbVertex
100
AcDb2dVertex
 10
331.456942
 20
196.107829
 30
0.0
  0
VERTEX
  5
782
100
AcDbEntity
  8
LAY-9
  6
CONTINUOUS
 62
     1
100
AcDbVertex
100
AcDb2dVertex
 10
331.721276
 20
195.331381
 30
0.0
  0
VERTEX
  5
783
100
AcDbEntity
  8
LAY-9
  6
CONTINUOUS
 62
     1
100
AcDbVertex
100
AcDb2dVertex
 10
332.035015
 20
194.500798
 30
0.0
  0
VERTEX
  5
784
100
AcDbEntity
  8
LAY-9
  6
CONTINUOUS
 62
     1
100
AcDbVertex
100
AcDb2dVertex
 10
332.4
 20
193.6
 30
0.0
  0
VERTEX
  5
785
100
AcDbEntity
  8
LAY-9
  6
CONTINUOUS
 62
     1
100
AcDbVertex
100
AcDb2dVertex
 10
332.672316
 20
192.953535
 30
0.0
  0
VERTEX
  5
786
100
AcDbEntity
  8
LAY-9
  6
CONTINUOUS
 62
     1
100
AcDbVertex
100
AcDb2dVertex
 10
332.959763
 20
192.28585
 30
0.0
  0
VERTEX
  5
787
100
AcDbEntity
  8
LAY-9
  6
CONTINUOUS
 62
     1
100
AcDbVertex
100
AcDb2dVertex
 10
333.253689
 20
191.61439
 30
0.0
  0
VERTEX
  5
788
100
AcDbEntity
  8
LAY-9
  6
CONTINUOUS
 62
     1
100
AcDbVertex
100
AcDb2dVertex
 10
333.545441
 20
190.956598
 30
0.0
  0
VERTEX
  5
789
100
AcDbEntity
  8
LAY-9
  6
CONTINUOUS
 62
     1
100
AcDbVertex
100
AcDb2dVertex
 10
333.826367
 20
190.329916
 30
0.0
  0
VERTEX
  5
78A
100
AcDbEntity
  8
LAY-9
  6
CONTINUOUS
 62
     1
100
AcDbVertex
100
AcDb2dVertex
 10
334.087813
 20
189.75179
 30
0.0
  0
VERTEX
  5
78B
100
AcDbEntity
  8
LAY-9
  6
CONTINUOUS
 62
     1
100
AcDbVertex
100
AcDb2dVertex
 10
334.321126
 20
189.239661
 30
0.0
  0
VERTEX
  5
78C
100
AcDbEntity
  8
LAY-9
  6
CONTINUOUS
 62
     1
100
AcDbVertex
100
AcDb2dVertex
 10
334.517654
 20
188.810975
 30
0.0
  0
VERTEX
  5
78D
100
AcDbEntity
  8
LAY-9
  6
CONTINUOUS
 62
     1
100
AcDbVertex
100
AcDb2dVertex
 10
334.668744
 20
188.483173
 30
0.0
  0
VERTEX
  5
78E
100
AcDbEntity
  8
LAY-9
  6
CONTINUOUS
 62
     1
100
AcDbVertex
100
AcDb2dVertex
 10
334.765744
 20
188.273701
 30
0.0
  0
VERTEX
  5
78F
100
AcDbEntity
  8
LAY-9
  6
CONTINUOUS
 62
     1
100
AcDbVertex
100
AcDb2dVertex
 10
334.8
 20
188.2
 30
0.0
  0
SEQEND
  5
790
100
AcDbEntity
  8
LAY-9
  6
CONTINUOUS
 62
     1
  0
LINE
  5
791
100
AcDbEntity
  8
LAY-9
  6
CONTINUOUS
 62
     1
100
AcDbLine
 10
36.7
 20
210.3
 30
0.0
 11
64.5
 21
210.3
 31
0.0
  0
LINE
  5
792
100
AcDbEntity
  8
LAY-9
  6
CONTINUOUS
 62
     1
100
AcDbLine
 10
77.0
 20
210.3
 30
0.0
 11
332.0
 21
210.3
 31
0.0
  0
LINE
  5
793
100
AcDbEntity
  8
LAY-9
  6
CONTINUOUS
 62
     1
100
AcDbLine
 10
75.4
 20
496.6
 30
0.0
 11
75.4
 21
273.3
 31
0.0
  0
LINE
  5
794
100
AcDbEntity
  8
LAY-9
  6
CONTINUOUS
 62
     1
100
AcDbLine
 10
77.0
 20
495.0
 30
0.0
 11
77.0
 21
273.3
 31
0.0
  0
LINE
  5
795
100
AcDbEntity
  8
LAY-9
  6
CONTINUOUS
 62
     1
100
AcDbLine
 10
92.0
 20
492.0
 30
0.0
 11
92.0
 21
273.3
 31
0.0
  0
LINE
  5
796
100
AcDbEntity
  8
LAY-9
  6
CONTINUOUS
 62
     1
100
AcDbLine
 10
93.6
 20
490.4
 30
0.0
 11
93.6
 21
273.3
 31
0.0
  0
LINE
  5
797
100
AcDbEntity
  8
LAY-9
  6
CONTINUOUS
 62
     1
100
AcDbLine
 10
93.6
 20
268.3
 30
0.0
 11
93.6
 21
220.3
 31
0.0
  0
LINE
  5
798
100
AcDbEntity
  8
LAY-9
  6
CONTINUOUS
 62
     1
100
AcDbLine
 10
92.0
 20
268.3
 30
0.0
 11
92.0
 21
220.3
 31
0.0
  0
LINE
  5
799
100
AcDbEntity
  8
LAY-9
  6
CONTINUOUS
 62
     1
100
AcDbLine
 10
77.0
 20
268.3
 30
0.0
 11
77.0
 21
195.3
 31
0.0
  0
LINE
  5
79A
100
AcDbEntity
  8
LAY-9
  6
CONTINUOUS
 62
     1
100
AcDbLine
 10
75.4
 20
268.3
 30
0.0
 11
75.4
 21
195.3
 31
0.0
  0
LINE
  5
79B
100
AcDbEntity
  8
LAY-9
  6
CONTINUOUS
 62
     1
100
AcDbLine
 10
338.463016
 20
236.8
 30
0.0
 11
129.0
 21
236.8
 31
0.0
  0
LINE
  5
79C
100
AcDbEntity
  8
LAY-9
  6
DIVIDE
 62
     1
100
AcDbLine
 10
73.900971
 20
273.3
 30
0.0
 11
156.4
 21
273.3
 31
0.0
  0
LINE
  5
79D
100
AcDbEntity
  8
LAY-9
  6
DIVIDE
 62
     1
100
AcDbLine
 10
73.900971
 20
268.3
 30
0.0
 11
156.4
 21
268.3
 31
0.0
  0
LINE
  5
79E
100
AcDbEntity
  8
LAY-9
  6
CONTINUOUS
 62
     1
100
AcDbLine
 10
448.2
 20
495.0
 30
0.0
 11
448.2
 21
484.6
 31
0.0
  0
LINE
  5
79F
100
AcDbEntity
  8
LAY-9
  6
CONTINUOUS
 62
     1
100
AcDbLine
 10
449.8
 20
483.0
 30
0.0
 11
459.6
 21
483.0
 31
0.0
  0
LINE
  5
7A0
100
AcDbEntity
  8
LAY-9
  6
CONTINUOUS
 62
     1
100
AcDbLine
 10
461.2
 20
484.6
 30
0.0
 11
461.2
 21
557.8
 31
0.0
  0
LINE
  5
7A1
100
AcDbEntity
  8
LAY-9
  6
CONTINUOUS
 62
     1
100
AcDbLine
 10
449.8
 20
495.0
 30
0.0
 11
449.8
 21
484.6
 31
0.0
  0
LINE
  5
7A2
100
AcDbEntity
  8
LAY-9
  6
CONTINUOUS
 62
     1
100
AcDbLine
 10
449.8
 20
484.6
 30
0.0
 11
459.6
 21
484.6
 31
0.0
  0
ARC
  5
7A3
100
AcDbEntity
  8
LAY-9
  6
CONTINUOUS
 62
     1
100
AcDbCircle
 10
448.2
 20
495.0
 30
0.0
 40
1.6
100
AcDbArc
 50
0.0
 51
90.0
  0
ARC
  5
7A4
100
AcDbEntity
  8
LAY-9
  6
CONTINUOUS
 62
     1
100
AcDbCircle
 10
449.8
 20
484.6
 30
0.0
 40
1.6
100
AcDbArc
 50
180.0
 51
270.0
  0
ARC
  5
7A5
100
AcDbEntity
  8
LAY-9
  6
CONTINUOUS
 62
     1
100
AcDbCircle
 10
459.6
 20
484.6
 30
0.0
 40
1.6
100
AcDbArc
 50
270.0
 51
0.0
  0
LINE
  5
7A6
100
AcDbEntity
  8
LAY-9
  6
CONTINUOUS
 62
     1
100
AcDbLine
 10
439.6
 20
496.6
 30
0.0
 11
448.2
 21
496.6
 31
0.0
  0
LINE
  5
7A7
100
AcDbEntity
  8
LAY-9
  6
CONTINUOUS
 62
     1
100
AcDbLine
 10
398.2
 20
495.0
 30
0.0
 11
448.2
 21
495.0
 31
0.0
  0
LINE
  5
7A8
100
AcDbEntity
  8
LAY-9
  6
CONTINUOUS
 62
     1
100
AcDbLine
 10
448.2
 20
210.3
 30
0.0
 11
448.2
 21
484.6
 31
0.0
  0
LINE
  5
7A9
100
AcDbEntity
  8
LAY-9
  6
DASHED2
 62
     1
100
AcDbLine
 10
448.2
 20
210.3
 30
0.0
 11
448.2
 21
195.3
 31
0.0
  0
LINE
  5
7AA
100
AcDbEntity
  8
LAY-9
  6
CONTINUOUS
 62
     1
100
AcDbLine
 10
461.2
 20
484.6
 30
0.0
 11
461.2
 21
273.3
 31
0.0
  0
LINE
  5
7AB
100
AcDbEntity
  8
LAY-9
  6
CONTINUOUS
 62
     1
100
AcDbLine
 10
461.2
 20
268.3
 30
0.0
 11
461.2
 21
210.3
 31
0.0
  0
LINE
  5
7AC
100
AcDbEntity
  8
LAY-9
  6
DASHED2
 62
     1
100
AcDbLine
 10
461.2
 20
210.3
 30
0.0
 11
461.2
 21
195.3
 31
0.0
  0
LINE
  5
7AD
100
AcDbEntity
  8
LAY-9
  6
DASHED2
 62
     1
100
AcDbLine
 10
445.59997
 20
195.3
 30
0.0
 11
461.2
 21
195.3
 31
0.0
  0
ARC
  5
7AE
100
AcDbEntity
  8
LAY-9
  6
CONTINUOUS
 62
     1
100
AcDbCircle
 10
552.0
 20
529.0
 30
0.0
 40
1.6
100
AcDbArc
 50
90.0
 51
180.0
  0
LINE
  5
7AF
100
AcDbEntity
  8
LAY-9
  6
CONTINUOUS
 62
     1
100
AcDbLine
 10
608.6
 20
517.6
 30
0.0
 11
608.6
 21
549.1
 31
0.0
  0
ARC
  5
7B0
100
AcDbEntity
  8
LAY-9
  6
CONTINUOUS
 62
     1
100
AcDbCircle
 10
607.0
 20
517.6
 30
0.0
 40
1.6
100
AcDbArc
 50
225.0
 51
0.0
  0
LINE
  5
7B1
100
AcDbEntity
  8
LAY-9
  6
CONTINUOUS
 62
     1
100
AcDbLine
 10
607.0
 20
517.6
 30
0.0
 11
607.0
 21
530.6
 31
0.0
  0
LINE
  5
7B2
100
AcDbEntity
  8
LAY-9
  6
CONTINUOUS
 62
     1
100
AcDbLine
 10
607.0
 20
517.6
 30
0.0
 11
595.6
 21
529.0
 31
0.0
  0
LINE
  5
7B3
100
AcDbEntity
  8
LAY-9
  6
CONTINUOUS
 62
     1
100
AcDbLine
 10
594.468629
 20
527.868629
 30
0.0
 11
605.868629
 21
516.468629
 31
0.0
  0
LINE
  5
7B4
100
AcDbEntity
  8
LAY-9
  6
CONTINUOUS
 62
     1
100
AcDbLine
 10
595.6
 20
529.0
 30
0.0
 11
594.468629
 21
527.868629
 31
0.0
  0
LINE
  5
7B5
100
AcDbEntity
  8
LAY-9
  6
CONTINUOUS
 62
     1
100
AcDbLine
 10
607.0
 20
530.6
 30
0.0
 11
607.0
 21
549.1
 31
0.0
  0
LINE
  5
7B6
100
AcDbEntity
  8
LAY-9
  6
CONTINUOUS
 62
     1
100
AcDbLine
 10
605.4
 20
530.6
 30
0.0
 11
605.4
 21
549.1
 31
0.0
  0
ARC
  5
7B7
100
AcDbEntity
  8
LAY-9
  6
CONTINUOUS
 62
     1
100
AcDbCircle
 10
605.4
 20
530.6
 30
0.0
 40
1.6
100
AcDbArc
 50
270.0
 51
0.0
  0
LINE
  5
7B8
100
AcDbEntity
  8
LAY-9
  6
CONTINUOUS
 62
     1
100
AcDbLine
 10
605.4
 20
530.6
 30
0.0
 11
552.0
 21
530.6
 31
0.0
  0
LINE
  5
7B9
100
AcDbEntity
  8
LAY-9
  6
CONTINUOUS
 62
     1
100
AcDbLine
 10
605.4
 20
529.0
 30
0.0
 11
552.0
 21
529.0
 31
0.0
  0
ARC
  5
7BA
100
AcDbEntity
  8
LAY-9
  6
CONTINUOUS
 62
     1
100
AcDbCircle
 10
552.0
 20
289.0
 30
0.0
 40
1.6
100
AcDbArc
 50
90.0
 51
180.0
  0
LINE
  5
7BB
100
AcDbEntity
  8
LAY-9
  6
CONTINUOUS
 62
     1
100
AcDbLine
 10
608.6
 20
277.6
 30
0.0
 11
608.6
 21
309.1
 31
0.0
  0
ARC
  5
7BC
100
AcDbEntity
  8
LAY-9
  6
CONTINUOUS
 62
     1
100
AcDbCircle
 10
607.0
 20
277.6
 30
0.0
 40
1.6
100
AcDbArc
 50
225.0
 51
0.0
  0
LINE
  5
7BD
100
AcDbEntity
  8
LAY-9
  6
CONTINUOUS
 62
     1
100
AcDbLine
 10
607.0
 20
277.6
 30
0.0
 11
607.0
 21
290.6
 31
0.0
  0
LINE
  5
7BE
100
AcDbEntity
  8
LAY-9
  6
CONTINUOUS
 62
     1
100
AcDbLine
 10
607.0
 20
277.6
 30
0.0
 11
595.6
 21
289.0
 31
0.0
  0
LINE
  5
7BF
100
AcDbEntity
  8
LAY-9
  6
CONTINUOUS
 62
     1
100
AcDbLine
 10
594.468629
 20
287.868629
 30
0.0
 11
605.868629
 21
276.468629
 31
0.0
  0
LINE
  5
7C0
100
AcDbEntity
  8
LAY-9
  6
CONTINUOUS
 62
     1
100
AcDbLine
 10
595.6
 20
289.0
 30
0.0
 11
594.468629
 21
287.868629
 31
0.0
  0
LINE
  5
7C1
100
AcDbEntity
  8
LAY-9
  6
CONTINUOUS
 62
     1
100
AcDbLine
 10
607.0
 20
290.6
 30
0.0
 11
607.0
 21
309.1
 31
0.0
  0
LINE
  5
7C2
100
AcDbEntity
  8
LAY-9
  6
CONTINUOUS
 62
     1
100
AcDbLine
 10
605.4
 20
290.6
 30
0.0
 11
605.4
 21
309.1
 31
0.0
  0
ARC
  5
7C3
100
AcDbEntity
  8
LAY-9
  6
CONTINUOUS
 62
     1
100
AcDbCircle
 10
605.4
 20
290.6
 30
0.0
 40
1.6
100
AcDbArc
 50
270.0
 51
0.0
  0
LINE
  5
7C4
100
AcDbEntity
  8
LAY-9
  6
CONTINUOUS
 62
     1
100
AcDbLine
 10
605.4
 20
290.6
 30
0.0
 11
552.0
 21
290.6
 31
0.0
  0
LINE
  5
7C5
100
AcDbEntity
  8
LAY-9
  6
CONTINUOUS
 62
     1
100
AcDbLine
 10
605.4
 20
289.0
 30
0.0
 11
552.0
 21
289.0
 31
0.0
  0
LINE
  5
7C6
100
AcDbEntity
  8
LAY-9
  6
CONTINUOUS
 62
     1
100
AcDbLine
 10
696.7
 20
276.0
 30
0.0
 11
607.0
 21
276.0
 31
0.0
  0
LINE
  5
7C7
100
AcDbEntity
  8
LAY-9
  6
CONTINUOUS
 62
     1
100
AcDbLine
 10
776.7
 20
516.0
 30
0.0
 11
607.0
 21
516.0
 31
0.0
  0
LINE
  5
7C8
100
AcDbEntity
  8
LAY-9
  6
CONTINUOUS
 62
     1
100
AcDbLine
 10
459.6
 20
484.6
 30
0.0
 11
459.6
 21
557.8
 31
0.0
  0
LINE
  5
7C9
100
AcDbEntity
  8
LAY-9
  6
CONTINUOUS
 62
     1
100
AcDbLine
 10
398.2
 20
557.8
 30
0.0
 11
398.2
 21
496.6
 31
0.0
  0
LINE
  5
7CA
100
AcDbEntity
  8
LAY-9
  6
CONTINUOUS
 62
     1
100
AcDbLine
 10
396.6
 20
496.6
 30
0.0
 11
396.6
 21
557.8
 31
0.0
  0
ARC
  5
7CB
100
AcDbEntity
  8
LAY-9
  6
CONTINUOUS
 62
     1
100
AcDbCircle
 10
93.6
 20
123.4
 30
0.0
 40
1.6
100
AcDbArc
 50
90.0
 51
180.0
  0
ARC
  5
7CC
100
AcDbEntity
  8
LAY-9
  6
CONTINUOUS
 62
     1
100
AcDbCircle
 10
77.0
 20
141.0
 30
0.0
 40
1.6
100
AcDbArc
 50
90.0
 51
180.0
  0
ARC
  5
7CD
100
AcDbEntity
  8
LAY-9
  6
CONTINUOUS
 62
     1
100
AcDbCircle
 10
95.9
 20
121.1
 30
0.0
 40
2.3
100
AcDbArc
 50
90.0
 51
180.0
  0
LINE
  5
7CE
100
AcDbEntity
  8
LAY-9
  6
CONTINUOUS
 62
     1
100
AcDbLine
 10
133.6
 20
129.6
 30
0.0
 11
133.6
 21
163.1
 31
0.0
  0
ARC
  5
7CF
100
AcDbEntity
  8
LAY-9
  6
CONTINUOUS
 62
     1
100
AcDbCircle
 10
132.0
 20
129.6
 30
0.0
 40
1.6
100
AcDbArc
 50
225.0
 51
0.0
  0
LINE
  5
7D0
100
AcDbEntity
  8
LAY-9
  6
CONTINUOUS
 62
     1
100
AcDbLine
 10
132.0
 20
129.6
 30
0.0
 11
132.0
 21
142.6
 31
0.0
  0
LINE
  5
7D1
100
AcDbEntity
  8
LAY-9
  6
CONTINUOUS
 62
     1
100
AcDbLine
 10
132.0
 20
129.6
 30
0.0
 11
120.6
 21
141.0
 31
0.0
  0
LINE
  5
7D2
100
AcDbEntity
  8
LAY-9
  6
CONTINUOUS
 62
     1
100
AcDbLine
 10
119.468629
 20
139.868629
 30
0.0
 11
130.868629
 21
128.468629
 31
0.0
  0
LINE
  5
7D3
100
AcDbEntity
  8
LAY-9
  6
CONTINUOUS
 62
     1
100
AcDbLine
 10
120.6
 20
141.0
 30
0.0
 11
119.468629
 21
139.868629
 31
0.0
  0
LINE
  5
7D4
100
AcDbEntity
  8
LAY-9
  6
CONTINUOUS
 62
     1
100
AcDbLine
 10
132.0
 20
142.6
 30
0.0
 11
132.0
 21
163.1
 31
0.0
  0
LINE
  5
7D5
100
AcDbEntity
  8
LAY-9
  6
CONTINUOUS
 62
     1
100
AcDbLine
 10
130.4
 20
142.6
 30
0.0
 11
130.4
 21
163.1
 31
0.0
  0
ARC
  5
7D6
100
AcDbEntity
  8
LAY-9
  6
CONTINUOUS
 62
     1
100
AcDbCircle
 10
130.4
 20
142.6
 30
0.0
 40
1.6
100
AcDbArc
 50
270.0
 51
0.0
  0
LINE
  5
7D7
100
AcDbEntity
  8
LAY-9
  6
CONTINUOUS
 62
     1
100
AcDbLine
 10
130.4
 20
142.6
 30
0.0
 11
77.0
 21
142.6
 31
0.0
  0
LINE
  5
7D8
100
AcDbEntity
  8
LAY-9
  6
CONTINUOUS
 62
     1
100
AcDbLine
 10
130.4
 20
141.0
 30
0.0
 11
77.0
 21
141.0
 31
0.0
  0
ARC
  5
7D9
100
AcDbEntity
  8
LAY-9
  6
CONTINUOUS
 62
     1
100
AcDbCircle
 10
87.4
 20
82.6
 30
0.0
 40
1.6
100
AcDbArc
 50
270.0
 51
90.0
  0
LINE
  5
7DA
100
AcDbEntity
  8
LAY-9
  6
CONTINUOUS
 62
     1
100
AcDbLine
 10
54.0
 20
81.0
 30
0.0
 11
87.4
 21
81.0
 31
0.0
  0
LINE
  5
7DB
100
AcDbEntity
  8
LAY-9
  6
CONTINUOUS
 62
     1
100
AcDbLine
 10
54.0
 20
82.6
 30
0.0
 11
87.4
 21
82.6
 31
0.0
  0
LINE
  5
7DC
100
AcDbEntity
  8
LAY-9
  6
CONTINUOUS
 62
     1
100
AcDbLine
 10
77.0
 20
84.2
 30
0.0
 11
87.4
 21
84.2
 31
0.0
  0
ARC
  5
7DD
100
AcDbEntity
  8
LAY-9
  6
CONTINUOUS
 62
     1
100
AcDbCircle
 10
77.0
 20
84.2
 30
0.0
 40
1.6
100
AcDbArc
 50
180.0
 51
270.0
  0
ARC
  5
7DE
100
AcDbEntity
  8
LAY-9
  6
CONTINUOUS
 62
     1
100
AcDbCircle
 10
93.6
 20
90.6
 30
0.0
 40
1.6
100
AcDbArc
 50
180.0
 51
270.0
  0
ARC
  5
7DF
100
AcDbEntity
  8
LAY-9
  6
CONTINUOUS
 62
     1
100
AcDbCircle
 10
95.9
 20
92.9
 30
0.0
 40
2.3
100
AcDbArc
 50
180.0
 51
270.0
  0
LINE
  5
7E0
100
AcDbEntity
  8
LAY-9
  6
CONTINUOUS
 62
     1
100
AcDbLine
 10
92.0
 20
90.6
 30
0.0
 11
92.0
 21
123.4
 31
0.0
  0
LINE
  5
7E1
100
AcDbEntity
  8
LAY-9
  6
CONTINUOUS
 62
     1
100
AcDbLine
 10
77.0
 20
84.2
 30
0.0
 11
77.0
 21
141.0
 31
0.0
  0
LINE
  5
7E2
100
AcDbEntity
  8
LAY-9
  6
CONTINUOUS
 62
     1
100
AcDbLine
 10
75.4
 20
84.2
 30
0.0
 11
75.4
 21
141.0
 31
0.0
  0
LINE
  5
7E3
100
AcDbEntity
  8
LAY-9
  6
CONTINUOUS
 62
     1
100
AcDbLine
 10
93.6
 20
90.6
 30
0.0
 11
93.6
 21
123.4
 31
0.0
  0
LINE
  5
7E4
100
AcDbEntity
  8
LAY-9
  6
CONTINUOUS
 62
     1
100
AcDbLine
 10
95.9
 20
92.9
 30
0.0
 11
95.9
 21
121.1
 31
0.0
  0
LINE
  5
7E5
100
AcDbEntity
  8
LAY-9
  6
CONTINUOUS
 62
     1
100
AcDbLine
 10
409.5
 20
488.1
 30
0.0
 11
409.5
 21
475.4
 31
0.0
  0
LINE
  5
7E6
100
AcDbEntity
  8
LAY-9
  6
CONTINUOUS
 62
     1
100
AcDbLine
 10
409.5
 20
475.4
 30
0.0
 11
407.2
 21
475.4
 31
0.0
  0
ARC
  5
7E7
100
AcDbEntity
  8
LAY-9
  6
CONTINUOUS
 62
     1
100
AcDbCircle
 10
407.2
 20
490.4
 30
0.0
 40
1.6
100
AcDbArc
 50
90.0
 51
180.0
  0
ARC
  5
7E8
100
AcDbEntity
  8
LAY-9
  6
CONTINUOUS
 62
     1
100
AcDbCircle
 10
409.5
 20
488.1
 30
0.0
 40
2.3
100
AcDbArc
 50
90.0
 51
180.0
  0
LINE
  5
7E9
100
AcDbEntity
  8
LAY-9
  6
CONTINUOUS
 62
     1
100
AcDbLine
 10
405.6
 20
220.3
 30
0.0
 11
407.2
 21
220.3
 31
0.0
  0
ARC
  5
7EA
100
AcDbEntity
  8
LAY-9
  6
CONTINUOUS
 62
     1
100
AcDbCircle
 10
409.5
 20
234.3
 30
0.0
 40
2.3
100
AcDbArc
 50
90.0
 51
180.0
  0
LINE
  5
7EB
100
AcDbEntity
  8
LAY-9
  6
CONTINUOUS
 62
     1
100
AcDbLine
 10
405.6
 20
268.3
 30
0.0
 11
405.6
 21
220.3
 31
0.0
  0
LINE
  5
7EC
100
AcDbEntity
  8
LAY-9
  6
CONTINUOUS
 62
     1
100
AcDbLine
 10
407.2
 20
490.4
 30
0.0
 11
407.2
 21
273.3
 31
0.0
  0
LINE
  5
7ED
100
AcDbEntity
  8
LAY-9
  6
CONTINUOUS
 62
     1
100
AcDbLine
 10
405.6
 20
490.4
 30
0.0
 11
405.6
 21
273.3
 31
0.0
  0
LINE
  5
7EE
100
AcDbEntity
  8
LAY-9
  6
CONTINUOUS
 62
     1
100
AcDbLine
 10
437.7
 20
475.4
 30
0.0
 11
437.7
 21
488.1
 31
0.0
  0
LINE
  5
7EF
100
AcDbEntity
  8
LAY-9
  6
CONTINUOUS
 62
     1
100
AcDbLine
 10
437.7
 20
475.4
 30
0.0
 11
440.0
 21
475.4
 31
0.0
  0
ARC
  5
7F0
100
AcDbEntity
  8
LAY-9
  6
CONTINUOUS
 62
     1
100
AcDbCircle
 10
440.0
 20
490.4
 30
0.0
 40
1.6
100
AcDbArc
 50
0.0
 51
90.0
  0
ARC
  5
7F1
100
AcDbEntity
  8
LAY-9
  6
CONTINUOUS
 62
     1
100
AcDbCircle
 10
437.7
 20
488.1
 30
0.0
 40
2.3
100
AcDbArc
 50
0.0
 51
90.0
  0
LINE
  5
7F2
100
AcDbEntity
  8
LAY-9
  6
CONTINUOUS
 62
     1
100
AcDbLine
 10
440.0
 20
220.3
 30
0.0
 11
441.6
 21
220.3
 31
0.0
  0
LINE
  5
7F3
100
AcDbEntity
  8
LAY-9
  6
CONTINUOUS
 62
     1
100
AcDbLine
 10
440.0
 20
490.4
 30
0.0
 11
436.1
 21
490.4
 31
0.0
  0
LINE
  5
7F4
100
AcDbEntity
  8
LAY-9
  6
CONTINUOUS
 62
     1
100
AcDbLine
 10
437.7
 20
488.1
 30
0.0
 11
436.1
 21
488.1
 31
0.0
  0
ARC
  5
7F5
100
AcDbEntity
  8
LAY-9
  6
CONTINUOUS
 62
     1
100
AcDbCircle
 10
437.7
 20
234.3
 30
0.0
 40
2.3
100
AcDbArc
 50
0.0
 51
90.0
  0
LINE
  5
7F6
100
AcDbEntity
  8
LAY-9
  6
CONTINUOUS
 62
     1
100
AcDbLine
 10
441.6
 20
268.3
 30
0.0
 11
441.6
 21
220.3
 31
0.0
  0
LINE
  5
7F7
100
AcDbEntity
  8
LAY-9
  6
CONTINUOUS
 62
     1
100
AcDbLine
 10
440.0
 20
273.3
 30
0.0
 11
440.0
 21
490.4
 31
0.0
  0
LINE
  5
7F8
100
AcDbEntity
  8
LAY-9
  6
CONTINUOUS
 62
     1
100
AcDbLine
 10
441.6
 20
490.4
 30
0.0
 11
441.6
 21
273.3
 31
0.0
  0
LINE
  5
7F9
100
AcDbEntity
  8
LAY-9
  6
CONTINUOUS
 62
     1
100
AcDbLine
 10
407.2
 20
492.0
 30
0.0
 11
440.0
 21
492.0
 31
0.0
  0
LINE
  5
7FA
100
AcDbEntity
  8
LAY-9
  6
CONTINUOUS
 62
     1
100
AcDbLine
 10
409.5
 20
234.3
 30
0.0
 11
437.7
 21
234.3
 31
0.0
  0
LINE
  5
7FB
100
AcDbEntity
  8
LAY-9
  6
DIVIDE
 62
     1
100
AcDbLine
 10
396.1
 20
273.3
 30
0.0
 11
463.8
 21
273.3
 31
0.0
  0
LINE
  5
7FC
100
AcDbEntity
  8
LAY-9
  6
DIVIDE
 62
     1
100
AcDbLine
 10
396.1
 20
268.3
 30
0.0
 11
463.8
 21
268.3
 31
0.0
  0
LINE
  5
7FD
100
AcDbEntity
  8
LAY-9
  6
CONTINUOUS
 62
     1
100
AcDbLine
 10
396.6
 20
496.6
 30
0.0
 11
396.6
 21
210.3
 31
0.0
  0
LINE
  5
7FE
100
AcDbEntity
  8
LAY-9
  6
CONTINUOUS
 62
     1
100
AcDbLine
 10
411.1
 20
490.4
 30
0.0
 11
407.2
 21
490.4
 31
0.0
  0
LINE
  5
7FF
100
AcDbEntity
  8
LAY-9
  6
CONTINUOUS
 62
     1
100
AcDbLine
 10
411.1
 20
488.1
 30
0.0
 11
409.5
 21
488.1
 31
0.0
  0
ARC
  5
800
100
AcDbEntity
  8
LAY-9
  6
CONTINUOUS
 62
     1
100
AcDbCircle
 10
568.6
 20
146.4
 30
0.0
 40
1.6
100
AcDbArc
 50
90.0
 51
180.0
  0
ARC
  5
801
100
AcDbEntity
  8
LAY-9
  6
CONTINUOUS
 62
     1
100
AcDbCircle
 10
570.9
 20
144.1
 30
0.0
 40
2.3
100
AcDbArc
 50
90.0
 51
180.0
  0
LINE
  5
802
100
AcDbEntity
  8
LAY-9
  6
CONTINUOUS
 62
     1
100
AcDbLine
 10
568.6
 20
146.4
 30
0.0
 11
776.7
 21
146.4
 31
0.0
  0
LINE
  5
803
100
AcDbEntity
  8
LAY-9
  6
CONTINUOUS
 62
     1
100
AcDbLine
 10
568.6
 20
148.0
 30
0.0
 11
776.7
 21
148.0
 31
0.0
  0
ARC
  5
804
100
AcDbEntity
  8
LAY-9
  6
CONTINUOUS
 62
     1
100
AcDbCircle
 10
568.6
 20
113.6
 30
0.0
 40
1.6
100
AcDbArc
 50
180.0
 51
270.0
  0
ARC
  5
805
100
AcDbEntity
  8
LAY-9
  6
CONTINUOUS
 62
     1
100
AcDbCircle
 10
570.9
 20
115.9
 30
0.0
 40
2.3
100
AcDbArc
 50
180.0
 51
270.0
  0
LINE
  5
806
100
AcDbEntity
  8
LAY-9
  6
CONTINUOUS
 62
     1
100
AcDbLine
 10
568.6
 20
112.0
 30
0.0
 11
776.7
 21
112.0
 31
0.0
  0
LINE
  5
807
100
AcDbEntity
  8
LAY-9
  6
CONTINUOUS
 62
     1
100
AcDbLine
 10
776.7
 20
113.6
 30
0.0
 11
568.6
 21
113.6
 31
0.0
  0
LINE
  5
808
100
AcDbEntity
  8
LAY-9
  6
CONTINUOUS
 62
     1
100
AcDbLine
 10
570.9
 20
115.9
 30
0.0
 11
570.9
 21
144.1
 31
0.0
  0
LINE
  5
809
100
AcDbEntity
  8
LAY-9
  6
CONTINUOUS
 62
     1
100
AcDbLine
 10
568.6
 20
113.6
 30
0.0
 11
568.6
 21
146.4
 31
0.0
  0
LINE
  5
80A
100
AcDbEntity
  8
LAY-9
  6
CONTINUOUS
 62
     1
100
AcDbLine
 10
567.0
 20
113.6
 30
0.0
 11
567.0
 21
146.4
 31
0.0
  0
LINE
  5
80B
100
AcDbEntity
  8
LAY-9
  6
DIVIDE
 62
     1
100
AcDbLine
 10
776.7
 20
152.2
 30
0.0
 11
776.7
 21
106.9
 31
0.0
  0
LINE
  5
80C
100
AcDbEntity
  8
LAY-9
  6
DASHED2
 62
     1
100
AcDbLine
 10
604.0
 20
116.0
 30
0.0
 11
776.7
 21
116.0
 31
0.0
  0
LINE
  5
80D
100
AcDbEntity
  8
LAY-9
  6
DASHED2
 62
     1
100
AcDbLine
 10
604.0
 20
144.0
 30
0.0
 11
776.7
 21
144.0
 31
0.0
  0
LINE
  5
80E
100
AcDbEntity
  8
LAY-9
  6
CONTINUOUS
 62
     1
100
AcDbLine
 10
291.7
 20
128.0
 30
0.0
 11
132.0
 21
128.0
 31
0.0
  0
LINE
  5
80F
100
AcDbEntity
  8
LAY-9
  6
CONTINUOUS
 62
     1
100
AcDbLine
 10
87.4
 20
81.0
 30
0.0
 11
291.7
 21
81.0
 31
0.0
  0
LINE
  5
810
100
AcDbEntity
  8
LAY-9
  6
DIVIDE
 62
     1
100
AcDbLine
 10
291.7
 20
134.9
 30
0.0
 11
291.7
 21
74.3
 31
0.0
  0
LINE
  5
811
100
AcDbEntity
  8
LAY-9
  6
CONTINUOUS
 62
     1
100
AcDbLine
 10
398.2
 20
210.3
 30
0.0
 11
495.0
 21
210.3
 31
0.0
  0
LINE
  5
812
100
AcDbEntity
  8
LAY-9
  6
CONTINUOUS
 62
     1
100
AcDbLine
 10
440.0
 20
221.6
 30
0.0
 11
437.7
 21
221.6
 31
0.0
  0
LINE
  5
813
100
AcDbEntity
  8
LAY-9
  6
CONTINUOUS
 62
     1
100
AcDbLine
 10
437.7
 20
221.6
 30
0.0
 11
437.7
 21
234.3
 31
0.0
  0
LINE
  5
814
100
AcDbEntity
  8
LAY-9
  6
CONTINUOUS
 62
     1
100
AcDbLine
 10
440.0
 20
220.3
 30
0.0
 11
440.0
 21
268.3
 31
0.0
  0
LINE
  5
815
100
AcDbEntity
  8
LAY-9
  6
CONTINUOUS
 62
     1
100
AcDbLine
 10
407.2
 20
221.6
 30
0.0
 11
409.5
 21
221.6
 31
0.0
  0
LINE
  5
816
100
AcDbEntity
  8
LAY-9
  6
CONTINUOUS
 62
     1
100
AcDbLine
 10
409.5
 20
221.6
 30
0.0
 11
409.5
 21
234.3
 31
0.0
  0
LINE
  5
817
100
AcDbEntity
  8
LAY-9
  6
CONTINUOUS
 62
     1
100
AcDbLine
 10
407.2
 20
268.3
 30
0.0
 11
407.2
 21
220.3
 31
0.0
  0
LINE
  5
818
100
AcDbEntity
  8
LAY-9
  6
CONTINUOUS
 62
     1
100
AcDbLine
 10
95.9
 20
121.1
 30
0.0
 11
108.6
 21
121.1
 31
0.0
  0
LINE
  5
819
100
AcDbEntity
  8
LAY-9
  6
CONTINUOUS
 62
     1
100
AcDbLine
 10
108.6
 20
123.4
 30
0.0
 11
108.6
 21
121.1
 31
0.0
  0
LINE
  5
81A
100
AcDbEntity
  8
LAY-9
  6
CONTINUOUS
 62
     1
100
AcDbLine
 10
108.6
 20
92.9
 30
0.0
 11
95.9
 21
92.9
 31
0.0
  0
LINE
  5
81B
100
AcDbEntity
  8
LAY-9
  6
CONTINUOUS
 62
     1
100
AcDbLine
 10
108.6
 20
92.9
 30
0.0
 11
108.6
 21
90.6
 31
0.0
  0
LINE
  5
81C
100
AcDbEntity
  8
LAY-9
  6
CONTINUOUS
 62
     1
100
AcDbLine
 10
93.6
 20
123.4
 30
0.0
 11
291.7
 21
123.4
 31
0.0
  0
LINE
  5
81D
100
AcDbEntity
  8
LAY-9
  6
CONTINUOUS
 62
     1
100
AcDbLine
 10
93.6
 20
125.0
 30
0.0
 11
291.7
 21
125.0
 31
0.0
  0
LINE
  5
81E
100
AcDbEntity
  8
LAY-9
  6
CONTINUOUS
 62
     1
100
AcDbLine
 10
291.7
 20
90.6
 30
0.0
 11
93.6
 21
90.6
 31
0.0
  0
LINE
  5
81F
100
AcDbEntity
  8
LAY-9
  6
CONTINUOUS
 62
     1
100
AcDbLine
 10
93.6
 20
89.0
 30
0.0
 11
291.7
 21
89.0
 31
0.0
  0
CIRCLE
  5
820
100
AcDbEntity
  8
LAY-9
  6
DASHDOT
 62
     1
100
AcDbCircle
 10
110.0
 20
417.8
 30
0.0
 40
7.5
  0
LINE
  5
821
100
AcDbEntity
  8
LAY-9
  6
CONTINUOUS
 62
     1
100
AcDbLine
 10
95.999985
 20
490.4
 30
0.0
 11
93.6
 21
490.4
 31
0.0
  0
LINE
  5
822
100
AcDbEntity
  8
LAY-9
  6
CONTINUOUS
 62
     1
100
AcDbLine
 10
94.0
 20
496.6
 30
0.0
 11
75.4
 21
496.6
 31
0.0
  0
LINE
  5
823
100
AcDbEntity
  8
LAY-9
  6
CONTINUOUS
 62
     1
100
AcDbLine
 10
334.181541
 20
496.6
 30
0.0
 11
245.0
 21
496.6
 31
0.0
  0
LINE
  5
824
100
AcDbEntity
  8
LAY-9
  6
CONTINUOUS
 62
     1
100
AcDbLine
 10
331.408085
 20
490.4
 30
0.0
 11
250.0
 21
490.4
 31
0.0
  0
LINE
  5
825
100
AcDbEntity
  8
LAY-9
  6
CONTINUOUS
 62
     1
100
AcDbLine
 10
338.005581
 20
234.3
 30
0.0
 11
218.0
 21
234.3
 31
0.0
  0
LINE
  5
826
100
AcDbEntity
  8
LAY-9
  6
CONTINUOUS
 62
     1
100
AcDbLine
 10
91.0
 20
195.3
 30
0.0
 11
75.4
 21
195.3
 31
0.0
  0
LINE
  5
827
100
AcDbEntity
  8
LAY-9
  6
DIVIDE
 62
     1
100
AcDbLine
 10
148.0
 20
288.8
 30
0.0
 11
98.0
 21
288.8
 31
0.0
  0
LINE
  5
828
100
AcDbEntity
  8
LAY-9
  6
DIVIDE
 62
     1
100
AcDbLine
 10
148.0
 20
308.8
 30
0.0
 11
148.0
 21
288.8
 31
0.0
  0
LINE
  5
829
100
AcDbEntity
  8
LAY-9
  6
DIVIDE
 62
     1
100
AcDbLine
 10
98.0
 20
308.8
 30
0.0
 11
148.0
 21
308.8
 31
0.0
  0
LINE
  5
82A
100
AcDbEntity
  8
LAY-9
  6
DIVIDE
 62
     1
100
AcDbLine
 10
98.0
 20
308.8
 30
0.0
 11
98.0
 21
288.8
 31
0.0
  0
LINE
  5
82B
100
AcDbEntity
  8
LAY-9
  6
CONTINUOUS
 62
     1
100
AcDbLine
 10
571.0
 20
144.0
 30
0.0
 11
602.0
 21
144.0
 31
0.0
  0
LINE
  5
82C
100
AcDbEntity
  8
LAY-9
  6
CONTINUOUS
 62
     1
100
AcDbLine
 10
571.0
 20
116.0
 30
0.0
 11
602.0
 21
116.0
 31
0.0
  0
LINE
  5
82D
100
AcDbEntity
  8
LAY-9
  6
CONTINUOUS
 62
     1
100
AcDbLine
 10
571.0
 20
144.0
 30
0.0
 11
571.0
 21
116.0
 31
0.0
  0
LINE
  5
82E
100
AcDbEntity
  8
LAY-9
  6
CONTINUOUS
 62
     1
100
AcDbLine
 10
602.0
 20
144.0
 30
0.0
 11
602.0
 21
116.0
 31
0.0
  0
LINE
  5
82F
100
AcDbEntity
  8
LAY-9
  6
CONTINUOUS
 62
     1
100
AcDbLine
 10
583.6
 20
116.0
 30
0.0
 11
583.6
 21
113.6
 31
0.0
  0
LINE
  5
830
100
AcDbEntity
  8
LAY-9
  6
CONTINUOUS
 62
     1
100
AcDbLine
 10
583.6
 20
144.1
 30
0.0
 11
583.6
 21
146.4
 31
0.0
  0
LINE
  5
831
100
AcDbEntity
  8
LAY-9
  6
CONTINUOUS
 62
     1
100
AcDbLine
 10
570.9
 20
144.1
 30
0.0
 11
583.6
 21
144.1
 31
0.0
  0
LINE
  5
832
100
AcDbEntity
  8
LAY-9
  6
CONTINUOUS
 62
     1
100
AcDbLine
 10
583.6
 20
115.9
 30
0.0
 11
570.9
 21
115.9
 31
0.0
  0
LINE
  5
833
100
AcDbEntity
  8
LAY-9
  6
CONTINUOUS
 62
     1
100
AcDbLine
 10
568.6
 20
394.3999
 30
0.0
 11
776.7
 21
394.3999
 31
0.0
  0
LINE
  5
834
100
AcDbEntity
  8
LAY-9
  6
CONTINUOUS
 62
     1
100
AcDbLine
 10
568.6
 20
395.9999
 30
0.0
 11
776.7
 21
395.9999
 31
0.0
  0
ARC
  5
835
100
AcDbEntity
  8
LAY-9
  6
CONTINUOUS
 62
     1
100
AcDbCircle
 10
568.6
 20
394.3999
 30
0.0
 40
1.6
100
AcDbArc
 50
90.0
 51
180.0
  0
LINE
  5
836
100
AcDbEntity
  8
LAY-9
  6
CONTINUOUS
 62
     1
100
AcDbLine
 10
588.6
 20
394.3999
 30
0.0
 11
588.6
 21
392.0999
 31
0.0
  0
LINE
  5
837
100
AcDbEntity
  8
LAY-9
  6
CONTINUOUS
 62
     1
100
AcDbLine
 10
570.9
 20
392.0999
 30
0.0
 11
588.6
 21
392.0999
 31
0.0
  0
ARC
  5
838
100
AcDbEntity
  8
LAY-9
  6
CONTINUOUS
 62
     1
100
AcDbCircle
 10
570.9
 20
392.0999
 30
0.0
 40
2.3
100
AcDbArc
 50
90.0
 51
180.0
  0
ARC
  5
839
100
AcDbEntity
  8
LAY-9
  6
CONTINUOUS
 62
     1
100
AcDbCircle
 10
568.6
 20
361.5999
 30
0.0
 40
1.6
100
AcDbArc
 50
180.0
 51
270.0
  0
LINE
  5
83A
100
AcDbEntity
  8
LAY-9
  6
CONTINUOUS
 62
     1
100
AcDbLine
 10
588.6
 20
363.8999
 30
0.0
 11
588.6
 21
361.5999
 31
0.0
  0
LINE
  5
83B
100
AcDbEntity
  8
LAY-9
  6
CONTINUOUS
 62
     1
100
AcDbLine
 10
588.6
 20
363.8999
 30
0.0
 11
570.9
 21
363.8999
 31
0.0
  0
ARC
  5
83C
100
AcDbEntity
  8
LAY-9
  6
CONTINUOUS
 62
     1
100
AcDbCircle
 10
570.9
 20
363.8999
 30
0.0
 40
2.3
100
AcDbArc
 50
180.0
 51
270.0
  0
LINE
  5
83D
100
AcDbEntity
  8
LAY-9
  6
CONTINUOUS
 62
     1
100
AcDbLine
 10
776.7
 20
361.5999
 30
0.0
 11
568.6
 21
361.5999
 31
0.0
  0
LINE
  5
83E
100
AcDbEntity
  8
LAY-9
  6
CONTINUOUS
 62
     1
100
AcDbLine
 10
568.6
 20
359.9999
 30
0.0
 11
776.7
 21
359.9999
 31
0.0
  0
LINE
  5
83F
100
AcDbEntity
  8
LAY-9
  6
CONTINUOUS
 62
     1
100
AcDbLine
 10
567.0
 20
361.5999
 30
0.0
 11
567.0
 21
394.3999
 31
0.0
  0
LINE
  5
840
100
AcDbEntity
  8
LAY-9
  6
CONTINUOUS
 62
     1
100
AcDbLine
 10
568.6
 20
361.5999
 30
0.0
 11
568.6
 21
394.3999
 31
0.0
  0
LINE
  5
841
100
AcDbEntity
  8
LAY-9
  6
CONTINUOUS
 62
     1
100
AcDbLine
 10
570.9
 20
363.8999
 30
0.0
 11
570.9
 21
392.0999
 31
0.0
  0
LINE
  5
842
100
AcDbEntity
  8
LAY-9
  6
DIVIDE
 62
     1
100
AcDbLine
 10
776.7
 20
398.4999
 30
0.0
 11
776.7
 21
356.8999
 31
0.0
  0
LINE
  5
843
100
AcDbEntity
  8
LAY-10
  6
CONTINUOUS
 62
     5
100
AcDbLine
 10
15.0
 20
15.0
 30
0.0
 11
826.0
 21
15.0
 31
0.0
  0
LINE
  5
844
100
AcDbEntity
  8
LAY-10
  6
CONTINUOUS
 62
     5
100
AcDbLine
 10
826.0
 20
15.0
 30
0.0
 11
826.0
 21
579.0
 31
0.0
  0
LINE
  5
845
100
AcDbEntity
  8
LAY-10
  6
CONTINUOUS
 62
     5
100
AcDbLine
 10
15.0
 20
15.0
 30
0.0
 11
15.0
 21
579.0
 31
0.0
  0
LINE
  5
846
100
AcDbEntity
  8
LAY-10
  6
CONTINUOUS
 62
     5
100
AcDbLine
 10
15.0
 20
579.0
 30
0.0
 11
826.0
 21
579.0
 31
0.0
  0
LINE
  5
847
100
AcDbEntity
  8
LAY-10
  6
CONTINUOUS
 62
     5
100
AcDbLine
 10
15.0
 20
40.0
 30
0.0
 11
826.0
 21
40.0
 31
0.0
  0
LINE
  5
848
100
AcDbEntity
  8
LAY-10
  6
CONTINUOUS
 62
     1
100
AcDbLine
 10
224.0
 20
40.0
 30
0.0
 11
224.0
 21
15.0
 31
0.0
  0
LINE
  5
849
100
AcDbEntity
  8
LAY-10
  6
CONTINUOUS
 62
     1
100
AcDbLine
 10
249.5
 20
40.0
 30
0.0
 11
249.5
 21
15.0
 31
0.0
  0
LINE
  5
84A
100
AcDbEntity
  8
LAY-10
  6
CONTINUOUS
 62
     1
100
AcDbLine
 10
275.0
 20
40.0
 30
0.0
 11
275.0
 21
15.0
 31
0.0
  0
LINE
  5
84B
100
AcDbEntity
  8
LAY-10
  6
CONTINUOUS
 62
     1
100
AcDbLine
 10
300.5
 20
40.0
 30
0.0
 11
300.5
 21
15.0
 31
0.0
  0
LINE
  5
84C
100
AcDbEntity
  8
LAY-10
  6
CONTINUOUS
 62
     1
100
AcDbLine
 10
326.0
 20
40.0
 30
0.0
 11
326.0
 21
15.0
 31
0.0
  0
LINE
  5
84D
100
AcDbEntity
  8
LAY-10
  6
CONTINUOUS
 62
     1
100
AcDbLine
 10
377.0
 20
40.0
 30
0.0
 11
377.0
 21
15.0
 31
0.0
  0
LINE
  5
84E
100
AcDbEntity
  8
LAY-10
  6
CONTINUOUS
 62
     1
100
AcDbLine
 10
738.0
 20
40.0
 30
0.0
 11
738.0
 21
15.0
 31
0.0
  0
LINE
  5
84F
100
AcDbEntity
  8
LAY-10
  6
CONTINUOUS
 62
     1
100
AcDbLine
 10
224.0
 20
32.0
 30
0.0
 11
377.0
 21
32.0
 31
0.0
  0
TEXT
  5
850
100
AcDbEntity
  8
LAY-10
  6
CONTINUOUS
 62
     4
100
AcDbText
 10
227.5
 20
33.0
 30
0.0
 40
6.0
  1
検　  図
 41
0.57856
  7
EXCADSTD
 72
     5
 11
246.700001
 21
33.0
 31
0.0
100
AcDbText
  0
TEXT
  5
851
100
AcDbEntity
  8
LAY-10
  6
CONTINUOUS
 62
     4
100
AcDbText
 10
253.2
 20
33.0
 30
0.0
 40
6.0
  1
担　　当
 41
0.672
  7
EXCADSTD
 72
     5
 11
272.400001
 21
33.0
 31
0.0
100
AcDbText
  0
TEXT
  5
852
100
AcDbEntity
  8
LAY-10
  6
CONTINUOUS
 62
     4
100
AcDbText
 10
278.4
 20
33.0
 30
0.0
 40
6.0
  1
製　　図
 41
0.672
  7
EXCADSTD
 72
     5
 11
297.600001
 21
33.0
 31
0.0
100
AcDbText
  0
TEXT
  5
853
100
AcDbEntity
  8
LAY-10
  6
CONTINUOUS
 62
     4
100
AcDbText
 10
303.9
 20
33.0
 30
0.0
 40
6.0
  1
尺　　度
 41
0.672
  7
EXCADSTD
 72
     5
 11
323.100001
 21
33.0
 31
0.0
100
AcDbText
  0
TEXT
  5
854
100
AcDbEntity
  8
LAY-10
  6
CONTINUOUS
 62
     4
100
AcDbText
 10
339.5
 20
33.0
 30
0.0
 40
6.0
  1
作成年月日
 41
0.672
  7
EXCADSTD
 72
     5
 11
363.500001
 21
33.0
 31
0.0
100
AcDbText
  0
TEXT
  5
855
100
AcDbEntity
  8
LAY-10
  6
CONTINUOUS
 62
   134
100
AcDbText
 10
42.98
 20
20.91
 30
0.0
 40
13.0
  1
日本ドアーチエック製造株式会社
 41
0.653908
  7
EXCADSTD
 72
     5
 11
194.779994
 21
20.91
 31
0.0
100
AcDbText
  0
LINE
  5
856
100
AcDbEntity
  8
LAY-10
  6
CONTINUOUS
 62
     1
100
AcDbLine
 10
841.0
 20
0.0
 30
0.0
 11
841.0
 21
2.0
 31
0.0
  0
LINE
  5
857
100
AcDbEntity
  8
LAY-10
  6
CONTINUOUS
 62
     1
100
AcDbLine
 10
841.0
 20
592.0
 30
0.0
 11
841.0
 21
594.0
 31
0.0
  0
LINE
  5
858
100
AcDbEntity
  8
LAY-10
  6
CONTINUOUS
 62
     1
100
AcDbLine
 10
841.0
 20
594.0
 30
0.0
 11
839.0
 21
594.0
 31
0.0
  0
LINE
  5
859
100
AcDbEntity
  8
LAY-10
  6
CONTINUOUS
 62
     1
100
AcDbLine
 10
2.0
 20
594.0
 30
0.0
 11
0.0
 21
594.0
 31
0.0
  0
LINE
  5
85A
100
AcDbEntity
  8
LAY-10
  6
CONTINUOUS
 62
     1
100
AcDbLine
 10
0.0
 20
594.0
 30
0.0
 11
0.0
 21
592.0
 31
0.0
  0
LINE
  5
85B
100
AcDbEntity
  8
LAY-10
  6
CONTINUOUS
 62
     1
100
AcDbLine
 10
0.0
 20
2.0
 30
0.0
 11
0.0
 21
0.0
 31
0.0
  0
LINE
  5
85C
100
AcDbEntity
  8
LAY-10
  6
CONTINUOUS
 62
     1
100
AcDbLine
 10
0.0
 20
0.0
 30
0.0
 11
2.0
 21
0.0
 31
0.0
  0
LINE
  5
85D
100
AcDbEntity
  8
LAY-10
  6
CONTINUOUS
 62
     1
100
AcDbLine
 10
839.0
 20
0.0
 30
0.0
 11
841.0
 21
0.0
 31
0.0
  0
TEXT
  5
85E
100
AcDbEntity
  8
LAY-10
  6
CONTINUOUS
 62
     4
100
AcDbText
 10
383.0
 20
33.0
 30
0.0
 40
6.0
  1
図 面 名
 41
0.57856
  7
EXCADSTD
 72
     5
 11
402.200001
 21
33.0
 31
0.0
100
AcDbText
  0
TEXT
  5
85F
100
AcDbEntity
  8
LAY-10
  6
CONTINUOUS
 62
     4
100
AcDbText
 10
744.0
 20
33.0
 30
0.0
 40
6.0
  1
図面番号
 41
0.672
  7
EXCADSTD
 72
     5
 11
763.200001
 21
33.0
 31
0.0
100
AcDbText
  0
LINE
  5
860
100
AcDbEntity
  8
LAY-11
  6
CONTINUOUS
 62
     1
100
AcDbLine
 10
70.9
 20
236.626407
 30
0.0
 11
75.4
 21
241.126407
 31
0.0
  0
LINE
  5
861
100
AcDbEntity
  8
LAY-11
  6
CONTINUOUS
 62
     1
100
AcDbLine
 10
70.9
 20
233.79798
 30
0.0
 11
75.4
 21
238.29798
 31
0.0
  0
LINE
  5
862
100
AcDbEntity
  8
LAY-11
  6
CONTINUOUS
 62
     1
100
AcDbLine
 10
70.9
 20
208.342136
 30
0.0
 11
75.4
 21
212.842136
 31
0.0
  0
LINE
  5
863
100
AcDbEntity
  8
LAY-11
  6
CONTINUOUS
 62
     1
100
AcDbLine
 10
70.9
 20
211.170563
 30
0.0
 11
75.4
 21
215.670563
 31
0.0
  0
LINE
  5
864
100
AcDbEntity
  8
LAY-11
  6
CONTINUOUS
 62
     1
100
AcDbLine
 10
70.9
 20
248.299985
 30
0.0
 11
75.4
 21
248.299985
 31
0.0
  0
LINE
  5
865
100
AcDbEntity
  8
LAY-11
  6
CONTINUOUS
 62
     1
100
AcDbLine
 10
70.9
 20
248.299985
 30
0.0
 11
70.9
 21
195.3
 31
0.0
  0
LINE
  5
866
100
AcDbEntity
  8
LAY-11
  6
CONTINUOUS
 62
     1
100
AcDbLine
 10
75.4
 20
195.3
 30
0.0
 11
70.9
 21
195.3
 31
0.0
  0
LINE
  5
867
100
AcDbEntity
  8
LAY-11
  6
CONTINUOUS
 62
     1
100
AcDbLine
 10
545.9
 20
262.670563
 30
0.0
 11
550.4
 21
267.170563
 31
0.0
  0
LINE
  5
868
100
AcDbEntity
  8
LAY-11
  6
CONTINUOUS
 62
     1
100
AcDbLine
 10
545.9
 20
259.842136
 30
0.0
 11
550.4
 21
264.342136
 31
0.0
  0
LINE
  5
869
100
AcDbEntity
  8
LAY-11
  6
CONTINUOUS
 62
     1
100
AcDbLine
 10
545.9
 20
237.214719
 30
0.0
 11
550.4
 21
241.714719
 31
0.0
  0
LINE
  5
86A
100
AcDbEntity
  8
LAY-11
  6
CONTINUOUS
 62
     1
100
AcDbLine
 10
545.9
 20
240.043146
 30
0.0
 11
550.4
 21
244.543146
 31
0.0
  0
LINE
  5
86B
100
AcDbEntity
  8
LAY-11
  6
CONTINUOUS
 62
     1
100
AcDbLine
 10
409.5
 20
483.0
 30
0.0
 11
437.7
 21
483.0
 31
0.0
  0
LINE
  5
86C
100
AcDbEntity
  8
LAY-11
  6
CONTINUOUS
 62
     1
100
AcDbLine
 10
409.5
 20
479.8
 30
0.0
 11
437.7
 21
479.8
 31
0.0
  0
LINE
  5
86D
100
AcDbEntity
  8
LAY-11
  6
CONTINUOUS
 62
     1
100
AcDbLine
 10
437.7
 20
483.0
 30
0.0
 11
409.5
 21
479.8
 31
0.0
  0
LINE
  5
86E
100
AcDbEntity
  8
LAY-11
  6
CONTINUOUS
 62
     1
100
AcDbLine
 10
409.5
 20
483.0
 30
0.0
 11
437.7
 21
479.8
 31
0.0
  0
LINE
  5
86F
100
AcDbEntity
  8
LAY-11
  6
CONTINUOUS
 62
     1
100
AcDbLine
 10
407.2
 20
241.1
 30
0.0
 11
440.0
 21
241.1
 31
0.0
  0
LINE
  5
870
100
AcDbEntity
  8
LAY-11
  6
CONTINUOUS
 62
     1
100
AcDbLine
 10
407.2
 20
236.6
 30
0.0
 11
440.0
 21
236.6
 31
0.0
  0
LINE
  5
871
100
AcDbEntity
  8
LAY-11
  6
CONTINUOUS
 62
     1
100
AcDbLine
 10
440.0
 20
241.1
 30
0.0
 11
407.2
 21
236.6
 31
0.0
  0
LINE
  5
872
100
AcDbEntity
  8
LAY-11
  6
CONTINUOUS
 62
     1
100
AcDbLine
 10
407.2
 20
241.1
 30
0.0
 11
440.0
 21
236.6
 31
0.0
  0
LINE
  5
873
100
AcDbEntity
  8
LAY-11
  6
CONTINUOUS
 62
     1
100
AcDbLine
 10
545.9
 20
229.0
 30
0.0
 11
545.9
 21
273.0
 31
0.0
  0
LINE
  5
874
100
AcDbEntity
  8
LAY-11
  6
CONTINUOUS
 62
     1
100
AcDbLine
 10
545.9
 20
229.0
 30
0.0
 11
550.4
 21
229.0
 31
0.0
  0
LINE
  5
875
100
AcDbEntity
  8
LAY-11
  6
CONTINUOUS
 62
     1
100
AcDbLine
 10
545.9
 20
273.0
 30
0.0
 11
550.4
 21
273.0
 31
0.0
  0
LINE
  5
876
100
AcDbEntity
  8
LAY-11
  6
CONTINUOUS
 62
     1
100
AcDbLine
 10
550.4
 20
273.0
 30
0.0
 11
550.4
 21
229.0
 31
0.0
  0
LINE
  5
877
100
AcDbEntity
  8
LAY-11
  6
CONTINUOUS
 62
     1
100
AcDbLine
 10
220.0
 20
236.8
 30
0.0
 11
220.0
 21
241.3
 31
0.0
  0
LINE
  5
878
100
AcDbEntity
  8
LAY-11
  6
CONTINUOUS
 62
     1
100
AcDbLine
 10
220.0
 20
241.3
 30
0.0
 11
127.0
 21
241.3
 31
0.0
  0
LINE
  5
879
100
AcDbEntity
  8
LAY-11
  6
CONTINUOUS
 62
     1
100
AcDbLine
 10
127.0
 20
241.3
 30
0.0
 11
127.0
 21
234.3
 31
0.0
  0
LINE
  5
87A
100
AcDbEntity
  8
LAY-11
  6
CONTINUOUS
 62
     1
100
AcDbLine
 10
220.0
 20
241.3
 30
0.0
 11
127.0
 21
236.8
 31
0.0
  0
LINE
  5
87B
100
AcDbEntity
  8
LAY-11
  6
CONTINUOUS
 62
     1
100
AcDbLine
 10
127.0
 20
241.3
 30
0.0
 11
220.0
 21
236.8
 31
0.0
  0
LINE
  5
87C
100
AcDbEntity
  8
LAY-11
  6
CONTINUOUS
 62
     1
100
AcDbLine
 10
125.0
 20
505.5
 30
0.0
 11
125.0
 21
500.999969
 31
0.0
  0
LINE
  5
87D
100
AcDbEntity
  8
LAY-11
  6
CONTINUOUS
 62
     1
100
AcDbLine
 10
125.0
 20
505.5
 30
0.0
 11
165.0
 21
505.5
 31
0.0
  0
LINE
  5
87E
100
AcDbEntity
  8
LAY-11
  6
CONTINUOUS
 62
     1
100
AcDbLine
 10
165.0
 20
505.5
 30
0.0
 11
165.0
 21
501.0
 31
0.0
  0
LINE
  5
87F
100
AcDbEntity
  8
LAY-11
  6
CONTINUOUS
 62
     1
100
AcDbLine
 10
125.0
 20
500.999969
 30
0.0
 11
165.0
 21
505.5
 31
0.0
  0
LINE
  5
880
100
AcDbEntity
  8
LAY-11
  6
CONTINUOUS
 62
     1
100
AcDbLine
 10
125.0
 20
505.5
 30
0.0
 11
165.0
 21
501.0
 31
0.0
  0
LINE
  5
881
100
AcDbEntity
  8
LAY-11
  6
CONTINUOUS
 62
     1
100
AcDbLine
 10
245.0
 20
505.5
 30
0.0
 11
245.0
 21
501.0
 31
0.0
  0
LINE
  5
882
100
AcDbEntity
  8
LAY-11
  6
CONTINUOUS
 62
     1
100
AcDbLine
 10
226.0
 20
500.999969
 30
0.0
 11
226.0
 21
505.5
 31
0.0
  0
LINE
  5
883
100
AcDbEntity
  8
LAY-11
  6
CONTINUOUS
 62
     1
100
AcDbLine
 10
226.0
 20
505.5
 30
0.0
 11
245.0
 21
505.5
 31
0.0
  0
LINE
  5
884
100
AcDbEntity
  8
LAY-11
  6
CONTINUOUS
 62
     1
100
AcDbLine
 10
226.0
 20
505.5
 30
0.0
 11
245.0
 21
501.0
 31
0.0
  0
LINE
  5
885
100
AcDbEntity
  8
LAY-11
  6
CONTINUOUS
 62
     1
100
AcDbLine
 10
226.0
 20
500.999969
 30
0.0
 11
245.0
 21
505.5
 31
0.0
  0
LINE
  5
886
100
AcDbEntity
  8
LAY-11
  6
CONTINUOUS
 62
     1
100
AcDbLine
 10
130.0
 20
479.8
 30
0.0
 11
250.0
 21
479.8
 31
0.0
  0
LINE
  5
887
100
AcDbEntity
  8
LAY-11
  6
CONTINUOUS
 62
     1
100
AcDbLine
 10
130.0
 20
483.00003
 30
0.0
 11
130.0
 21
479.8
 31
0.0
  0
LINE
  5
888
100
AcDbEntity
  8
LAY-11
  6
CONTINUOUS
 62
     1
100
AcDbLine
 10
250.0
 20
479.8
 30
0.0
 11
250.0
 21
483.0
 31
0.0
  0
LINE
  5
889
100
AcDbEntity
  8
LAY-11
  6
CONTINUOUS
 62
     1
100
AcDbLine
 10
250.0
 20
483.0
 30
0.0
 11
130.0
 21
479.8
 31
0.0
  0
LINE
  5
88A
100
AcDbEntity
  8
LAY-11
  6
CONTINUOUS
 62
     1
100
AcDbLine
 10
130.0
 20
483.0
 30
0.0
 11
250.0
 21
479.8
 31
0.0
  0
LINE
  5
88B
100
AcDbEntity
  8
LAY-12
  6
CONTINUOUS
 62
     3
100
AcDbLine
 10
403.85
 20
284.8
 30
0.0
 11
403.85
 21
312.8
 31
0.0
  0
LINE
  5
88C
100
AcDbEntity
  8
LAY-12
  6
CONTINUOUS
 62
     3
100
AcDbLine
 10
405.6
 20
313.8
 30
0.0
 11
405.6
 21
283.8
 31
0.0
  0
LINE
  5
88D
100
AcDbEntity
  8
LAY-12
  6
CONTINUOUS
 62
     3
100
AcDbLine
 10
407.2
 20
312.3
 30
0.0
 11
405.600031
 21
312.3
 31
0.0
  0
LINE
  5
88E
100
AcDbEntity
  8
LAY-12
  6
CONTINUOUS
 62
     3
100
AcDbLine
 10
405.600031
 20
285.3
 30
0.0
 11
407.2
 21
285.3
 31
0.0
  0
LINE
  5
88F
100
AcDbEntity
  8
LAY-12
  6
CONTINUOUS
 62
     3
100
AcDbLine
 10
405.6
 20
313.8
 30
0.0
 11
404.85
 21
313.8
 31
0.0
  0
ARC
  5
890
100
AcDbEntity
  8
LAY-12
  6
CONTINUOUS
 62
     3
100
AcDbCircle
 10
404.85
 20
312.8
 30
0.0
 40
1.0
100
AcDbArc
 50
89.999981
 51
180.00002
  0
LINE
  5
891
100
AcDbEntity
  8
LAY-12
  6
CONTINUOUS
 62
     3
100
AcDbLine
 10
405.6
 20
283.8
 30
0.0
 11
404.85
 21
283.8
 31
0.0
  0
ARC
  5
892
100
AcDbEntity
  8
LAY-12
  6
CONTINUOUS
 62
     3
100
AcDbCircle
 10
404.85
 20
284.8
 30
0.0
 40
1.0
100
AcDbArc
 50
180.00002
 51
270.0
  0
LINE
  5
893
100
AcDbEntity
  8
LAY-12
  6
CONTINUOUS
 62
     3
100
AcDbLine
 10
407.2
 20
426.049985
 30
0.0
 11
405.6
 21
426.049985
 31
0.0
  0
LINE
  5
894
100
AcDbEntity
  8
LAY-12
  6
CONTINUOUS
 62
     3
100
AcDbLine
 10
405.6
 20
409.549985
 30
0.0
 11
407.2
 21
409.549985
 31
0.0
  0
LINE
  5
895
100
AcDbEntity
  8
LAY-12
  6
CONTINUOUS
 62
     3
100
AcDbLine
 10
405.6
 20
407.799985
 30
0.0
 11
404.85
 21
407.799985
 31
0.0
  0
ARC
  5
896
100
AcDbEntity
  8
LAY-12
  6
CONTINUOUS
 62
     3
100
AcDbCircle
 10
404.85
 20
408.799985
 30
0.0
 40
1.0
100
AcDbArc
 50
180.00002
 51
270.0
  0
LINE
  5
897
100
AcDbEntity
  8
LAY-12
  6
CONTINUOUS
 62
     3
100
AcDbLine
 10
405.6
 20
427.799985
 30
0.0
 11
404.85
 21
427.799985
 31
0.0
  0
ARC
  5
898
100
AcDbEntity
  8
LAY-12
  6
CONTINUOUS
 62
     3
100
AcDbCircle
 10
404.85
 20
426.799985
 30
0.0
 40
1.0
100
AcDbArc
 50
89.999981
 51
180.00002
  0
LINE
  5
899
100
AcDbEntity
  8
LAY-12
  6
CONTINUOUS
 62
     3
100
AcDbLine
 10
403.85
 20
408.799985
 30
0.0
 11
403.85
 21
426.799985
 31
0.0
  0
LINE
  5
89A
100
AcDbEntity
  8
LAY-12
  6
CONTINUOUS
 62
     3
100
AcDbLine
 10
405.6
 20
427.799985
 30
0.0
 11
405.6
 21
407.799985
 31
0.0
  0
LINE
  5
89B
100
AcDbEntity
  8
LAY-13
  6
CONTINUOUS
 62
     1
100
AcDbLine
 10
407.95
 20
72.5
 30
0.0
 11
423.25
 21
72.5
 31
0.0
  0
POLYLINE
  5
89C
100
AcDbEntity
  8
LAY-13
  6
CONTINUOUS
 62
     1
100
AcDb2dPolyline
 66
     1
 10
0.0
 20
0.0
 30
0.0
 70
   128
  0
VERTEX
  5
89D
100
AcDbEntity
  8
LAY-13
  6
CONTINUOUS
 62
     1
100
AcDbVertex
100
AcDb2dVertex
 10
424.0
 20
80.0
 30
0.0
  0
VERTEX
  5
89E
100
AcDbEntity
  8
LAY-13
  6
CONTINUOUS
 62
     1
100
AcDbVertex
100
AcDb2dVertex
 10
423.995485
 20
79.983139
 30
0.0
  0
VERTEX
  5
89F
100
AcDbEntity
  8
LAY-13
  6
CONTINUOUS
 62
     1
100
AcDbVertex
100
AcDb2dVertex
 10
423.98289
 20
79.935102
 30
0.0
  0
VERTEX
  5
8A0
100
AcDbEntity
  8
LAY-13
  6
CONTINUOUS
 62
     1
100
AcDbVertex
100
AcDb2dVertex
 10
423.963642
 20
79.859708
 30
0.0
  0
VERTEX
  5
8A1
100
AcDbEntity
  8
LAY-13
  6
CONTINUOUS
 62
     1
100
AcDbVertex
100
AcDb2dVertex
 10
423.939165
 20
79.760776
 30
0.0
  0
VERTEX
  5
8A2
100
AcDbEntity
  8
LAY-13
  6
CONTINUOUS
 62
     1
100
AcDbVertex
100
AcDb2dVertex
 10
423.910885
 20
79.642126
 30
0.0
  0
VERTEX
  5
8A3
100
AcDbEntity
  8
LAY-13
  6
CONTINUOUS
 62
     1
100
AcDbVertex
100
AcDb2dVertex
 10
423.880228
 20
79.507576
 30
0.0
  0
VERTEX
  5
8A4
100
AcDbEntity
  8
LAY-13
  6
CONTINUOUS
 62
     1
100
AcDbVertex
100
AcDb2dVertex
 10
423.84862
 20
79.360946
 30
0.0
  0
VERTEX
  5
8A5
100
AcDbEntity
  8
LAY-13
  6
CONTINUOUS
 62
     1
100
AcDbVertex
100
AcDb2dVertex
 10
423.817486
 20
79.206055
 30
0.0
  0
VERTEX
  5
8A6
100
AcDbEntity
  8
LAY-13
  6
CONTINUOUS
 62
     1
100
AcDbVertex
100
AcDb2dVertex
 10
423.788251
 20
79.046721
 30
0.0
  0
VERTEX
  5
8A7
100
AcDbEntity
  8
LAY-13
  6
CONTINUOUS
 62
     1
100
AcDbVertex
100
AcDb2dVertex
 10
423.762343
 20
78.886765
 30
0.0
  0
VERTEX
  5
8A8
100
AcDbEntity
  8
LAY-13
  6
CONTINUOUS
 62
     1
100
AcDbVertex
100
AcDb2dVertex
 10
423.741185
 20
78.730004
 30
0.0
  0
VERTEX
  5
8A9
100
AcDbEntity
  8
LAY-13
  6
CONTINUOUS
 62
     1
100
AcDbVertex
100
AcDb2dVertex
 10
423.720492
 20
78.507903
 30
0.0
  0
VERTEX
  5
8AA
100
AcDbEntity
  8
LAY-13
  6
CONTINUOUS
 62
     1
100
AcDbVertex
100
AcDb2dVertex
 10
423.712052
 20
78.299878
 30
0.0
  0
VERTEX
  5
8AB
100
AcDbEntity
  8
LAY-13
  6
CONTINUOUS
 62
     1
100
AcDbVertex
100
AcDb2dVertex
 10
423.714363
 20
78.104384
 30
0.0
  0
VERTEX
  5
8AC
100
AcDbEntity
  8
LAY-13
  6
CONTINUOUS
 62
     1
100
AcDbVertex
100
AcDb2dVertex
 10
423.725921
 20
77.919875
 30
0.0
  0
VERTEX
  5
8AD
100
AcDbEntity
  8
LAY-13
  6
CONTINUOUS
 62
     1
100
AcDbVertex
100
AcDb2dVertex
 10
423.745224
 20
77.744803
 30
0.0
  0
VERTEX
  5
8AE
100
AcDbEntity
  8
LAY-13
  6
CONTINUOUS
 62
     1
100
AcDbVertex
100
AcDb2dVertex
 10
423.770768
 20
77.577623
 30
0.0
  0
VERTEX
  5
8AF
100
AcDbEntity
  8
LAY-13
  6
CONTINUOUS
 62
     1
100
AcDbVertex
100
AcDb2dVertex
 10
423.801052
 20
77.416789
 30
0.0
  0
VERTEX
  5
8B0
100
AcDbEntity
  8
LAY-13
  6
CONTINUOUS
 62
     1
100
AcDbVertex
100
AcDb2dVertex
 10
423.834571
 20
77.260752
 30
0.0
  0
VERTEX
  5
8B1
100
AcDbEntity
  8
LAY-13
  6
CONTINUOUS
 62
     1
100
AcDbVertex
100
AcDb2dVertex
 10
423.869823
 20
77.107969
 30
0.0
  0
VERTEX
  5
8B2
100
AcDbEntity
  8
LAY-13
  6
CONTINUOUS
 62
     1
100
AcDbVertex
100
AcDb2dVertex
 10
423.905306
 20
76.956891
 30
0.0
  0
VERTEX
  5
8B3
100
AcDbEntity
  8
LAY-13
  6
CONTINUOUS
 62
     1
100
AcDbVertex
100
AcDb2dVertex
 10
423.939515
 20
76.805972
 30
0.0
  0
VERTEX
  5
8B4
100
AcDbEntity
  8
LAY-13
  6
CONTINUOUS
 62
     1
100
AcDbVertex
100
AcDb2dVertex
 10
423.972045
 20
76.648888
 30
0.0
  0
VERTEX
  5
8B5
100
AcDbEntity
  8
LAY-13
  6
CONTINUOUS
 62
     1
100
AcDbVertex
100
AcDb2dVertex
 10
424.000869
 20
76.489477
 30
0.0
  0
VERTEX
  5
8B6
100
AcDbEntity
  8
LAY-13
  6
CONTINUOUS
 62
     1
100
AcDbVertex
100
AcDb2dVertex
 10
424.025239
 20
76.326891
 30
0.0
  0
VERTEX
  5
8B7
100
AcDbEntity
  8
LAY-13
  6
CONTINUOUS
 62
     1
100
AcDbVertex
100
AcDb2dVertex
 10
424.044406
 20
76.160281
 30
0.0
  0
VERTEX
  5
8B8
100
AcDbEntity
  8
LAY-13
  6
CONTINUOUS
 62
     1
100
AcDbVertex
100
AcDb2dVertex
 10
424.057622
 20
75.988796
 30
0.0
  0
VERTEX
  5
8B9
100
AcDbEntity
  8
LAY-13
  6
CONTINUOUS
 62
     1
100
AcDbVertex
100
AcDb2dVertex
 10
424.064137
 20
75.81159
 30
0.0
  0
VERTEX
  5
8BA
100
AcDbEntity
  8
LAY-13
  6
CONTINUOUS
 62
     1
100
AcDbVertex
100
AcDb2dVertex
 10
424.063204
 20
75.627811
 30
0.0
  0
VERTEX
  5
8BB
100
AcDbEntity
  8
LAY-13
  6
CONTINUOUS
 62
     1
100
AcDbVertex
100
AcDb2dVertex
 10
424.054072
 20
75.436612
 30
0.0
  0
VERTEX
  5
8BC
100
AcDbEntity
  8
LAY-13
  6
CONTINUOUS
 62
     1
100
AcDbVertex
100
AcDb2dVertex
 10
424.035993
 20
75.237143
 30
0.0
  0
VERTEX
  5
8BD
100
AcDbEntity
  8
LAY-13
  6
CONTINUOUS
 62
     1
100
AcDbVertex
100
AcDb2dVertex
 10
424.008219
 20
75.028556
 30
0.0
  0
VERTEX
  5
8BE
100
AcDbEntity
  8
LAY-13
  6
CONTINUOUS
 62
     1
100
AcDbVertex
100
AcDb2dVertex
 10
423.97
 20
74.81
 30
0.0
  0
VERTEX
  5
8BF
100
AcDbEntity
  8
LAY-13
  6
CONTINUOUS
 62
     1
100
AcDbVertex
100
AcDb2dVertex
 10
423.909464
 20
74.531987
 30
0.0
  0
VERTEX
  5
8C0
100
AcDbEntity
  8
LAY-13
  6
CONTINUOUS
 62
     1
100
AcDbVertex
100
AcDb2dVertex
 10
423.836348
 20
74.245455
 30
0.0
  0
VERTEX
  5
8C1
100
AcDbEntity
  8
LAY-13
  6
CONTINUOUS
 62
     1
100
AcDbVertex
100
AcDb2dVertex
 10
423.754518
 20
73.957778
 30
0.0
  0
VERTEX
  5
8C2
100
AcDbEntity
  8
LAY-13
  6
CONTINUOUS
 62
     1
100
AcDbVertex
100
AcDb2dVertex
 10
423.667839
 20
73.67633
 30
0.0
  0
VERTEX
  5
8C3
100
AcDbEntity
  8
LAY-13
  6
CONTINUOUS
 62
     1
100
AcDbVertex
100
AcDb2dVertex
 10
423.580176
 20
73.408485
 30
0.0
  0
VERTEX
  5
8C4
100
AcDbEntity
  8
LAY-13
  6
CONTINUOUS
 62
     1
100
AcDbVertex
100
AcDb2dVertex
 10
423.495394
 20
73.161616
 30
0.0
  0
VERTEX
  5
8C5
100
AcDbEntity
  8
LAY-13
  6
CONTINUOUS
 62
     1
100
AcDbVertex
100
AcDb2dVertex
 10
423.41736
 20
72.943098
 30
0.0
  0
VERTEX
  5
8C6
100
AcDbEntity
  8
LAY-13
  6
CONTINUOUS
 62
     1
100
AcDbVertex
100
AcDb2dVertex
 10
423.349938
 20
72.760303
 30
0.0
  0
VERTEX
  5
8C7
100
AcDbEntity
  8
LAY-13
  6
CONTINUOUS
 62
     1
100
AcDbVertex
100
AcDb2dVertex
 10
423.296994
 20
72.620606
 30
0.0
  0
VERTEX
  5
8C8
100
AcDbEntity
  8
LAY-13
  6
CONTINUOUS
 62
     1
100
AcDbVertex
100
AcDb2dVertex
 10
423.262393
 20
72.53138
 30
0.0
  0
VERTEX
  5
8C9
100
AcDbEntity
  8
LAY-13
  6
CONTINUOUS
 62
     1
100
AcDbVertex
100
AcDb2dVertex
 10
423.25
 20
72.5
 30
0.0
  0
SEQEND
  5
8CA
100
AcDbEntity
  8
LAY-13
  6
CONTINUOUS
 62
     1
  0
ARC
  5
8CB
100
AcDbEntity
  8
LAY-13
  6
CONTINUOUS
 62
     1
100
AcDbCircle
 10
397.45
 20
83.75
 30
0.0
 40
0.75
100
AcDbArc
 50
0.0
 51
90.0
  0
LINE
  5
8CC
100
AcDbEntity
  8
LAY-13
  6
CONTINUOUS
 62
     1
100
AcDbLine
 10
398.2
 20
83.75
 30
0.0
 11
398.2
 21
73.25
 31
0.0
  0
ARC
  5
8CD
100
AcDbEntity
  8
LAY-13
  6
CONTINUOUS
 62
     1
100
AcDbCircle
 10
397.45
 20
73.25
 30
0.0
 40
0.75
100
AcDbArc
 50
270.0
 51
0.0
  0
LINE
  5
8CE
100
AcDbEntity
  8
LAY-13
  6
CONTINUOUS
 62
     1
100
AcDbLine
 10
394.45
 20
86.0
 30
0.0
 11
399.7
 21
86.0
 31
0.0
  0
LINE
  5
8CF
100
AcDbEntity
  8
LAY-13
  6
CONTINUOUS
 62
     1
100
AcDbLine
 10
393.7
 20
86.75
 30
0.0
 11
393.7
 21
101.6
 31
0.0
  0
ARC
  5
8D0
100
AcDbEntity
  8
LAY-13
  6
CONTINUOUS
 62
     1
100
AcDbCircle
 10
394.45
 20
86.75
 30
0.0
 40
0.75
100
AcDbArc
 50
180.0
 51
270.0
  0
LINE
  5
8D1
100
AcDbEntity
  8
LAY-13
  6
CONTINUOUS
 62
     1
100
AcDbLine
 10
399.7
 20
86.0
 30
0.0
 11
399.7
 21
70.25
 31
0.0
  0
ARC
  5
8D2
100
AcDbEntity
  8
LAY-13
  6
CONTINUOUS
 62
     1
100
AcDbCircle
 10
400.45
 20
70.25
 30
0.0
 40
0.75
100
AcDbArc
 50
180.0
 51
270.0
  0
LINE
  5
8D3
100
AcDbEntity
  8
LAY-13
  6
CONTINUOUS
 62
     1
100
AcDbLine
 10
400.45
 20
69.5
 30
0.0
 11
407.2
 21
69.5
 31
0.0
  0
LINE
  5
8D4
100
AcDbEntity
  8
LAY-13
  6
CONTINUOUS
 62
     1
100
AcDbLine
 10
407.95
 20
80.0
 30
0.0
 11
407.95
 21
70.25
 31
0.0
  0
ARC
  5
8D5
100
AcDbEntity
  8
LAY-13
  6
CONTINUOUS
 62
     1
100
AcDbCircle
 10
407.2
 20
70.25
 30
0.0
 40
0.75
100
AcDbArc
 50
270.0
 51
0.0
  0
POLYLINE
  5
8D6
100
AcDbEntity
  8
LAY-13
  6
CONTINUOUS
 62
     1
100
AcDb2dPolyline
 66
     1
 10
0.0
 20
0.0
 30
0.0
 70
   128
  0
VERTEX
  5
8D7
100
AcDbEntity
  8
LAY-13
  6
CONTINUOUS
 62
     1
100
AcDbVertex
100
AcDb2dVertex
 10
381.1
 20
84.5
 30
0.0
  0
VERTEX
  5
8D8
100
AcDbEntity
  8
LAY-13
  6
CONTINUOUS
 62
     1
100
AcDbVertex
100
AcDb2dVertex
 10
381.12828
 20
84.465122
 30
0.0
  0
VERTEX
  5
8D9
100
AcDbEntity
  8
LAY-13
  6
CONTINUOUS
 62
     1
100
AcDbVertex
100
AcDb2dVertex
 10
381.206765
 20
84.366008
 30
0.0
  0
VERTEX
  5
8DA
100
AcDbEntity
  8
LAY-13
  6
CONTINUOUS
 62
     1
100
AcDbVertex
100
AcDb2dVertex
 10
381.325927
 20
84.210941
 30
0.0
  0
VERTEX
  5
8DB
100
AcDbEntity
  8
LAY-13
  6
CONTINUOUS
 62
     1
100
AcDbVertex
100
AcDb2dVertex
 10
381.476235
 20
84.008204
 30
0.0
  0
VERTEX
  5
8DC
100
AcDbEntity
  8
LAY-13
  6
CONTINUOUS
 62
     1
100
AcDbVertex
100
AcDb2dVertex
 10
381.64816
 20
83.766079
 30
0.0
  0
VERTEX
  5
8DD
100
AcDbEntity
  8
LAY-13
  6
CONTINUOUS
 62
     1
100
AcDbVertex
100
AcDb2dVertex
 10
381.832172
 20
83.492848
 30
0.0
  0
VERTEX
  5
8DE
100
AcDbEntity
  8
LAY-13
  6
CONTINUOUS
 62
     1
100
AcDbVertex
100
AcDb2dVertex
 10
382.018742
 20
83.196795
 30
0.0
  0
VERTEX
  5
8DF
100
AcDbEntity
  8
LAY-13
  6
CONTINUOUS
 62
     1
100
AcDbVertex
100
AcDb2dVertex
 10
382.198339
 20
82.886201
 30
0.0
  0
VERTEX
  5
8E0
100
AcDbEntity
  8
LAY-13
  6
CONTINUOUS
 62
     1
100
AcDbVertex
100
AcDb2dVertex
 10
382.361434
 20
82.569349
 30
0.0
  0
VERTEX
  5
8E1
100
AcDbEntity
  8
LAY-13
  6
CONTINUOUS
 62
     1
100
AcDbVertex
100
AcDb2dVertex
 10
382.498498
 20
82.254521
 30
0.0
  0
VERTEX
  5
8E2
100
AcDbEntity
  8
LAY-13
  6
CONTINUOUS
 62
     1
100
AcDbVertex
100
AcDb2dVertex
 10
382.6
 20
81.95
 30
0.0
  0
VERTEX
  5
8E3
100
AcDbEntity
  8
LAY-13
  6
CONTINUOUS
 62
     1
100
AcDbVertex
100
AcDb2dVertex
 10
382.673129
 20
81.512667
 30
0.0
  0
VERTEX
  5
8E4
100
AcDbEntity
  8
LAY-13
  6
CONTINUOUS
 62
     1
100
AcDbVertex
100
AcDb2dVertex
 10
382.653743
 20
81.11137
 30
0.0
  0
VERTEX
  5
8E5
100
AcDbEntity
  8
LAY-13
  6
CONTINUOUS
 62
     1
100
AcDbVertex
100
AcDb2dVertex
 10
382.556895
 20
80.737798
 30
0.0
  0
VERTEX
  5
8E6
100
AcDbEntity
  8
LAY-13
  6
CONTINUOUS
 62
     1
100
AcDbVertex
100
AcDb2dVertex
 10
382.39764
 20
80.383639
 30
0.0
  0
VERTEX
  5
8E7
100
AcDbEntity
  8
LAY-13
  6
CONTINUOUS
 62
     1
100
AcDbVertex
100
AcDb2dVertex
 10
382.191032
 20
80.040584
 30
0.0
  0
VERTEX
  5
8E8
100
AcDbEntity
  8
LAY-13
  6
CONTINUOUS
 62
     1
100
AcDbVertex
100
AcDb2dVertex
 10
381.952126
 20
79.70032
 30
0.0
  0
VERTEX
  5
8E9
100
AcDbEntity
  8
LAY-13
  6
CONTINUOUS
 62
     1
100
AcDbVertex
100
AcDb2dVertex
 10
381.695974
 20
79.354538
 30
0.0
  0
VERTEX
  5
8EA
100
AcDbEntity
  8
LAY-13
  6
CONTINUOUS
 62
     1
100
AcDbVertex
100
AcDb2dVertex
 10
381.437631
 20
78.994926
 30
0.0
  0
VERTEX
  5
8EB
100
AcDbEntity
  8
LAY-13
  6
CONTINUOUS
 62
     1
100
AcDbVertex
100
AcDb2dVertex
 10
381.192152
 20
78.613172
 30
0.0
  0
VERTEX
  5
8EC
100
AcDbEntity
  8
LAY-13
  6
CONTINUOUS
 62
     1
100
AcDbVertex
100
AcDb2dVertex
 10
380.97459
 20
78.200968
 30
0.0
  0
VERTEX
  5
8ED
100
AcDbEntity
  8
LAY-13
  6
CONTINUOUS
 62
     1
100
AcDbVertex
100
AcDb2dVertex
 10
380.8
 20
77.75
 30
0.0
  0
VERTEX
  5
8EE
100
AcDbEntity
  8
LAY-13
  6
CONTINUOUS
 62
     1
100
AcDbVertex
100
AcDb2dVertex
 10
380.666145
 20
77.17775
 30
0.0
  0
VERTEX
  5
8EF
100
AcDbEntity
  8
LAY-13
  6
CONTINUOUS
 62
     1
100
AcDbVertex
100
AcDb2dVertex
 10
380.597982
 20
76.563492
 30
0.0
  0
VERTEX
  5
8F0
100
AcDbEntity
  8
LAY-13
  6
CONTINUOUS
 62
     1
100
AcDbVertex
100
AcDb2dVertex
 10
380.584354
 20
75.927561
 30
0.0
  0
VERTEX
  5
8F1
100
AcDbEntity
  8
LAY-13
  6
CONTINUOUS
 62
     1
100
AcDbVertex
100
AcDb2dVertex
 10
380.614108
 20
75.29029
 30
0.0
  0
VERTEX
  5
8F2
100
AcDbEntity
  8
LAY-13
  6
CONTINUOUS
 62
     1
100
AcDbVertex
100
AcDb2dVertex
 10
380.676086
 20
74.672016
 30
0.0
  0
VERTEX
  5
8F3
100
AcDbEntity
  8
LAY-13
  6
CONTINUOUS
 62
     1
100
AcDbVertex
100
AcDb2dVertex
 10
380.759135
 20
74.093071
 30
0.0
  0
VERTEX
  5
8F4
100
AcDbEntity
  8
LAY-13
  6
CONTINUOUS
 62
     1
100
AcDbVertex
100
AcDb2dVertex
 10
380.852099
 20
73.57379
 30
0.0
  0
VERTEX
  5
8F5
100
AcDbEntity
  8
LAY-13
  6
CONTINUOUS
 62
     1
100
AcDbVertex
100
AcDb2dVertex
 10
380.943823
 20
73.134509
 30
0.0
  0
VERTEX
  5
8F6
100
AcDbEntity
  8
LAY-13
  6
CONTINUOUS
 62
     1
100
AcDbVertex
100
AcDb2dVertex
 10
381.023151
 20
72.79556
 30
0.0
  0
VERTEX
  5
8F7
100
AcDbEntity
  8
LAY-13
  6
CONTINUOUS
 62
     1
100
AcDbVertex
100
AcDb2dVertex
 10
381.078929
 20
72.577279
 30
0.0
  0
VERTEX
  5
8F8
100
AcDbEntity
  8
LAY-13
  6
CONTINUOUS
 62
     1
100
AcDbVertex
100
AcDb2dVertex
 10
381.1
 20
72.5
 30
0.0
  0
SEQEND
  5
8F9
100
AcDbEntity
  8
LAY-13
  6
CONTINUOUS
 62
     1
  0
LINE
  5
8FA
100
AcDbEntity
  8
LAY-13
  6
CONTINUOUS
 62
     1
100
AcDbLine
 10
381.1
 20
84.5
 30
0.0
 11
397.45
 21
84.5
 31
0.0
  0
LINE
  5
8FB
100
AcDbEntity
  8
LAY-13
  6
CONTINUOUS
 62
     1
100
AcDbLine
 10
381.1
 20
72.5
 30
0.0
 11
397.45
 21
72.5
 31
0.0
  0
ENDSEC
  0
SECTION
  2
OBJECTS
  0
DICTIONARY
  5
19
100
AcDbDictionary
  3
ACAD_GROUP
350
1A
  3
ACAD_MLINESTYLE
350
1B
  0
DICTIONARY
  5
1A
102
{ACAD_REACTORS
330
19
102
}
100
AcDbDictionary
  0
DICTIONARY
  5
1B
102
{ACAD_REACTORS
330
19
102
}
100
AcDbDictionary
  3
STANDARD
350
1C
  0
MLINESTYLE
  5
1C
102
{ACAD_REACTORS
330
1B
102
}
100
AcDbMlineStyle
  2
Standard
 70
     0
  3

 62
     0
 51
90.0
 52
90.0
 71
     2
 49
0.5
 62
   256
  6
ByLayer
 49
-0.5
 62
   256
  6
ByLayer
  0
ENDSEC
  0
EOF
